» » »

Strunz And Farah - Raggle Taggle Tabs

Artists:  A B C D E F G H I J K L M N O P Q R S T U V W X Y Z # 

Raggle Taggle Tabs

(ver. 1) Click to play this song!
Strunz And Farah
 Rating:
2.6/5 (21 vote)

 Raggle Taggle  lessons Tabs too difficult? Try these video lessons and learn fast
 
                Tuning: Standard, 4/4, 120bpm


  |           |           |           |
|-------------------------------------------------|
|-------------------------------------------------|
|/9-9-9-9-9-9-9-9-9-9-9-9-7-7-7-6-6-6-5-5-5-4-4-4-|
|-------------------------------------------------|
|-------------------------------------------------|
|-------------------------------------------------|

  |           |           |           |
|-------------------------------------------------|
|-------------------------------------------------|
|/9-9-9-9-9-9-9-9-9-9-9-9-7-7-7-6-6-6-5-5-5-4-4-4-|
|-------------------------------------------------|
|-------------------------------------------------|
|-------------------------------------------------|

  |           |           |              |
|-------------------------------------------------------|
|-------------------------------------------------------|
|/9-9-9-9-9-9-9-9-9-9-9-9-------------------------------|
|-------------------------10-10-10-7-7-7-9-9-9-10-10-10-|
|-------------------------------------------------------|
|-------------------------------------------------------|


  |       |       |       |
|-----7-------7-------7-------7--|
|-----8-------8-------8-------8--|
|-----9-------9-------9-------9--|
|-----9-------9-------9-------9--|
|-7-----------7-------7-------7--|
|--------------------------------|


  |           |           |           |
|-6-7-8-7-6-----------6-7-8-7-0-8-7-0-3-2-0-3-2-0-|
|-----------8-7-6-7-8-----------------------------|
|-------------------------------------------------|
|-------------------------------------------------|
|-------------------------------------------------|
|-------------------------------------------------|

  |           |           |           |
|-6-7-8-7-6-----------6-7-8-7-0-8-7-0-3-2-0-3-2-0-|
|-----------8-7-6-7-8-----------------------------|
|-------------------------------------------------|
|-------------------------------------------------|
|-------------------------------------------------|
|-------------------------------------------------|

  |           |           |           |
|-6-7-8-7-6-----------6---------------------------|
|-----------8-7-6-7-8---8-7-6-7-8-7-6-5-6-7-6-5-4-|
|-------------------------------------------------|
|-------------------------------------------------|
|-------------------------------------------------|
|-------------------------------------------------|

  |           |           |           |
|------------------------<12>---------------------|
|-5----------------<12>---------------------------|
|-------------------------------------------------|
|-------------------------------------------------|
|-------------------------------------------------|
|-------------------------------------------------|


  |           |           |           |
|-6-7-8-7-6-----------6-7-8-7-0-8-7-0-3-2-0-3-2-0-|
|-----------8-7-6-7-8-----------------------------|
|-------------------------------------------------|
|-------------------------------------------------|
|-------------------------------------------------|
|-------------------------------------------------|

  |           |           |           |
|-6-7-8-7-6-----------6-7-8-7-0-8-7-0-10-9-0-10-9-0-|
|-----------8-7-6-7-8-------------------------------|
|---------------------------------------------------|
|---------------------------------------------------|
|---------------------------------------------------|
|---------------------------------------------------|

  |                 |                 |                 |
|-------------------------------------------------------14-11-12-14-12-11-|
|-11-12-13-12-11----------------11-12-13-11-12-13-12-11-------------------|
|----------------13-12-11-12-13-------------------------------------------|
|-------------------------------------------------------------------------|
|-------------------------------------------------------------------------|
|-------------------------------------------------------------------------|

  |           |        |        |
|-12h14p12--------------------------|
|-----------------------------------|
|-----------------------------------|
|-----------------------------------|
|-----------------------------------|
|-----------------------------------|


  |           |           |           |
|-------------------------------------------------|
|-------------------------------------------------|
|-3-4-5-4-3-----------3-4-5-4-0-5-4-0-4-3-0-4-3-0-|
|-----------5-4-3-4-5-----------------------------|
|-------------------------------------------------|
|-------------------------------------------------|

  |           |           |           |
|-------------------------------------------------|
|-------------------------------------------------|
|-3-4-5-4-3-----------3-4-5-4-0-5-4-0-4-3-0-4-3-0-|
|-----------5-4-3-4-5-----------------------------|
|-------------------------------------------------|
|-------------------------------------------------|

  |           |           |           |
|-------------------------------------------------|
|-------------------------------------------------|
|-3-4-5-4-3-----------3---------------------------|
|-----------5-4-3-4-5---5-4-3-4-5-4-3-2-3-4-3-2-1-|
|-------------------------------------------------|
|-------------------------------------------------|

  |           |           |           |
|-------------------------------------------------|
|-------------------------------------------------|
|-------------------------------------------------|
|-2-----------------------------------------------|
|-------------------------------------------------|
|-------------------------------------------------|
            
Submit corrections


        Raggle Taggle  lessons Hard to play? Try these video lessons and learn fast Raggle Taggle  lessons
        
↑ Back to top | Tablatures and chords for acoustic guitar and electric guitar, ukulele, drums are parodies/interpretations of the original songs. You may use it for private study, scholarship, research or language learning purposes only