» » »

Strunz And Farah - Quetzal Tabs

Artists:  A B C D E F G H I J K L M N O P Q R S T U V W X Y Z # 

Quetzal Tabs

(ver. 1) Click to play this song!
Strunz And Farah
 Rating:
3.7/5 (22 votes)

 Quetzal  lessons Tabs too difficult? Try these video lessons and learn fast
 
                
Intro
   |       |       |       |           |       |       |       |
e|-----3p2---2-3-0---3-2-0-0h2h3-2-0-|-----3p2---2-3-0---3-2-0-0h2h3-2-0-|\
B|-3-------3-------------------------|-2-------2-------------------------| \
G|-----------------------------------|-----------------------------------|  \  x5
D|-----------------------------------|-----------------------------------|  /
A|-----------------------------------|-----------------------------------| /
E|-----------------------------------|-----------------------------------|/

                                      A     G     F#
  |       |       |       |           |       |       |       |
|-----3p2---2-3-0---3-2-0-0h2h3-2-0-|-5-----3-----2-------------------|
|-3-------3-------------------------|-5-----3-----2-------------------|
|-----------------------------------|-6-----4-----3-------------------|
|-----------------------------------|-7-----5-----4-------------------|
|-----------------------------------|-7-----5-----4-------------------|
|-----------------------------------|-5-----3-----2-------------------|


  |               |               |               |
|-------------------------------------------------------------6-8-|
|-------------------------------------------------5-7-6-5-6-7-----|
|-------------------------------------4-6-5-4-5-6-----------------|
|-------------------------3-5-4-3-4-5-----------------------------|
|-------------2-4-3-2-3-4-----------------------------------------|
|-2-3-2-1-2-3-----------------------------------------------------|

  |               |               |               |
|-7-6-7-8-9-7-6-7-9~~~--------------------------------------------|
|-----------------------------------------------------------------|
|-----------------------------------------------------------------|
|-----------------------------------------------------------------|
|-----------------------------------------------------------------|
|-----------------------------------------------------------------|

            
Submit corrections


        Quetzal  lessons Hard to play? Try these video lessons and learn fast Quetzal  lessons
        
↑ Back to top | Tablatures and chords for acoustic guitar and electric guitar, ukulele, drums are parodies/interpretations of the original songs. You may use it for private study, scholarship, research or language learning purposes only