» » »

Strunz And Farah - Laleh Tabs

Artists:  A B C D E F G H I J K L M N O P Q R S T U V W X Y Z # 

Laleh Tabs

(ver. 1) Click to play this song!
Strunz And Farah
 Rating:
3.5/5 (28 votes)

 Laleh  lessons Tabs too difficult? Try these video lessons and learn fast
 
                   |           |           |           |
e|-----------------------------------6-7-6---6-7-8-|
B|-----------4-5-4---4-5-7-8-7-5-7-8-------8-------|
G|-5-4-3-4-5-------5-------------------------------|
D|-------------------------------------------------|
A|-------------------------------------------------|
E|-------------------------------------------------|

  |           |           |           |
|-7-6---6-7-6-------------------------------------|
|-----8-------8-7-5-7-8-7-5-4---4-5-4-------------|
|-----------------------------5-------5-4-3-5-4-3-|
|-------------------------------------------------|
|-------------------------------------------------|
|-------------------------------------------------|
 
  |
|-------------|
|-------------|
|-4~~~--------|
|-------------|
|-------------|
|-------------|

            
Submit corrections


        Laleh  lessons Hard to play? Try these video lessons and learn fast Laleh  lessons
        
↑ Back to top | Tablatures and chords for acoustic guitar and electric guitar, ukulele, drums are parodies/interpretations of the original songs. You may use it for private study, scholarship, research or language learning purposes only