» » »

Strunz And Farah - Halls Of Time Tabs

Artists:  A B C D E F G H I J K L M N O P Q R S T U V W X Y Z # 

Halls Of Time Tabs

(ver. 1) Click to play this song!
Strunz And Farah
 Rating:
4.3/5 (23 votes)

 Halls Of Time  lessons Tabs too difficult? Try these video lessons and learn fast
 
                Song Structure: Intro A B C A


Intro 
   |     |     |     |     |     |     |       |     |     |     |     |     |     |
e|-------0-----1-----3--------0-----1-----3--|-------0-----1-----3--------0-----1-----3--|
B|----------------1--------------------1-----|----------------1--------------------1-----|
G|----2-----2--------------2-----2-----------|----2-----2--------------2-----2-----------|
D|-0--------------------0--------------------|-0--------------------0--------------------|
A|-------------------------------------------|-------------------------------------------|
E|-------------------------------------------|-------------------------------------------|


Part A
  Dm
  |     |     |     |     |     |     |       |     |     |     |     |     |     |
|-------10----13----------10-12-13-12-10----|----------10-13----------12----------10----|
|-10-------------------------------------10-|-10-11-13----------------------13----------|
|-------------------------------------------|-------------------------------------------|
|-------------------------------------------|-------------------------------------------|
|-------------------------------------------|-------------------------------------------|
|-------------------------------------------|-------------------------------------------|
  ?     ?     ?  ?  ?  ?     ?     ?  ?  ?    ?     ?     ?  ?  ?  ?     ?     ?  ?  ?

  Cm
  |     |     |     |     |     |     |       |     |     |     |     |     |     |
|-------8-----11----------8--10-11-10-8-----|----------8--11----------10----------8-----|
|-8--------------------------------------8--|-8--9--11----------------------11----------|
|-------------------------------------------|-------------------------------------------|
|-------------------------------------------|-------------------------------------------|
|-------------------------------------------|-------------------------------------------|
|-------------------------------------------|-------------------------------------------|
  ?     ?     ?  ?  ?  ?     ?     ?  ?  ?    ?     ?     ?  ?  ?  ?     ?     ?  ?  ?

  C#m
  |     |     |     |     |     |     |       |     |     |     |     |     |     |
|-------12----11-------------------9--------|-------12----11----------------------------|
|-9--------------------------12----------9--|-9-----------------------12----9-----------|
|-------------------------------------------|-------------------------------------------|
|-------------------------------------------|-------------------------------------------|
|-------------------------------------------|-------------------------------------------|
|-------------------------------------------|-------------------------------------------|
  ?     ?     ?  ?  ?  ?     ?     ?  ?  ?    ?     ?     ?  ?  ?  ?     ?     ?  ?  ?

  Dm
  |     |     |     |     |     |     |       |     |     |     |     |     |     |
|-------13----12-------------------10-------|-------13----12----------------------------|
|-10-------------------------13----------10-|-10----------------------13----10----------|
|-------------------------------------------|-------------------------------------------|
|-------------------------------------------|-------------------------------------------|
|-------------------------------------------|-------------------------------------------|
|-------------------------------------------|-------------------------------------------|
  ?     ?     ?  ?  ?  ?     ?     ?  ?  ?    ?     ?     ?  ?  ?  ?     ?     ?  ?  ?

  A
  |     |     |     |     |     |     |       |     |     |     |     |     |     |
|-------------------------------------------|-------------------------------12----------|
|-------11----10-------------------8--------|-------11----10----------14----------------|
|-9--------------------------9-----------9--|-9-----------------------------------------|
|-------------------------------------------|-------------------------------------------|
|-------------------------------------------|-------------------------------------------|
|-------------------------------------------|-------------------------------------------|
  ?     ?     ?  ?  ?  ?     ?     ?  ?  ?    ?     ?     ?  ?  ?  ?     ?     ?  ?  ?

  C
  |     |     |     |     |     |     |       |     |     |     |     |     |     |
|-------------12----------------12----------|-------------12----------------------------|
|-------13----------------13-14----14-13-11-|-------11-13-------------14----11----12----|
|-12----------------------------------------|-12-13-------------------------------------|
|-------------------------------------------|-------------------------------------------|
|-------------------------------------------|-------------------------------------------|
|-------------------------------------------|-------------------------------------------|
  ?     ?     ?  ?  ?  ?     ?     ?  ?  ?    ?     ?     ?  ?  ?  ?     ?     ?  ?  ?

  A
  |     |     |     |     |     |     |       |     |     |     |     |     |     |
|-------------9-----------------9-----------|-------------9-----------------------------|
|-------10----------------10-11----11-10-8--|-------8--10-------------11----8-----10----|
|-9-----------------------------------------|-9--10-------------------------------------|
|-------------------------------------------|-------------------------------------------|
|-------------------------------------------|-------------------------------------------|
|-------------------------------------------|-------------------------------------------|
  ?     ?     ?  ?  ?  ?     ?     ?  ?  ?    ?     ?     ?  ?  ?  ?     ?     ?  ?  ?


Part B: play the same chords and rhythm as Part A, Lead coming soon.


Part C
  |     |     |     |     |     |     |       |     |     |     |     |     |     |
|----------------------------0--------------|----------------------------0-------------|
|-------1--------3--------------------3-----|-------1--------3--------------------3----|
|-------------------------2-----2-----------|-------------------------2-----2----------|
|----2-----2--3-----3--------------3-----3--|----2-----2--3-----3--------------3-----3-|
|-0--------------------0--------------------|-0--------------------0-------------------|
|-------------------------------------------|------------------------------------------|

  |     |     |     |     |     |     |       |     |     |     |     |     |     |
|----------------------------0--------------|----------------------------0-------------|
|-------1--------3--------------------3-----|-------1--------3--------------------3----|
|-------------------------2-----2-----------|-------------------------2-----2----------|
|----2-----2--3-----3--------------3-----3--|----2-----2--3-----3--------------3-----3-|
|-0--------------------0--------------------|-0--------------------0-------------------|
|-------------------------------------------|------------------------------------------|

  |     |     |     |     |     |     |       |     |     |     |     |     |     |
|----------------------------2--------------|----------------------------2--------------|
|-------4--------5--------------------5-----|-------3--------5--------------------5-----|
|-------------------------4-----4-----------|-------------------------4-----4-----------|
|----4-----4--5-----5--------------5-----5--|----4-----4--5-----5--------------5-----5--|
|-2--------------------2--------------------|-2--------------------2--------------------|
|-------------------------------------------|-------------------------------------------|

  |     |     |     |     |     |     |       |     |     |     |     |     |     |
|----------------------------0--------------|----------------------------0-------------|
|-------1--------3--------------------3-----|-------1--------3--------------------3----|
|-------------------------2-----2-----------|-------------------------2-----2----------|
|----2-----2--3-----3--------------3-----3--|----2-----2--3-----3--------------3-----3-|
|-0--------------------0--------------------|-0--------------------0-------------------|
|-------------------------------------------|------------------------------------------|

  |     |     |     |     |     |     |       |     |     |     |     |     |     |
|----------------------------2--------------|----------------------------2--------------|
|-------4--------5--------------------5-----|-------3--------5--------------------5-----|
|-------------------------4-----4-----------|-------------------------4-----4-----------|
|----4-----4--5-----5--------------5-----5--|----4-----4--5-----5--------------5-----5--|
|-2--------------------2--------------------|-2--------------------2--------------------|
|-------------------------------------------|-------------------------------------------|

            
Submit corrections


        Halls Of Time  lessons Hard to play? Try these video lessons and learn fast Halls Of Time  lessons
        
↑ Back to top | Tablatures and chords for acoustic guitar and electric guitar, ukulele, drums are parodies/interpretations of the original songs. You may use it for private study, scholarship, research or language learning purposes only