» » »

Strunz And Farah - Below The Moon Tabs

Artists:  A B C D E F G H I J K L M N O P Q R S T U V W X Y Z # 

Below The Moon Tabs

(ver. 1) Click to play this song!
Strunz And Farah
 Rating:
3/5 (23 votes)

 Below The Moon  lessons Tabs too difficult? Try these video lessons and learn fast
 
                   |     |        |     |     |       |     |        |     |     |
e|-0-----0-----0--0-----0-----0-----|-0-----0-----0--0-----0-----0-----|
B|----0-----1--------0-----1-----3--|----0-----1--------0-----1-----3--|
G|----------------------------------|----------------------------------|
D|-2-----3--------2-----3-----5-----|-2-----3--------2-----3-----5-----|
A|----------------------------------|----------------------------------|
E|----------------------------------|----------------------------------|

  |     |        |     |     |       |     |        |     |     |
|-0-----1-----1--0-----1-----3-----|-0-----1-----1--0-----1-----3-----|
|----0-----1--------0-----1-----3--|----0-----1--------0-----1-----3--|
|----------------------------------|----------------------------------|
|-2-----3--------2-----3-----5-----|-2-----3--------2-----3-----5-----|
|----------------------------------|----------------------------------|
|----------------------------------|----------------------------------|

  |     |        |     |     |       |     |        |     |     |
|-4-----5-----5--4-----5-----7-----|-4-----5-----5--4-----5-----7-----|
|----------------------------------|----------------------------------|
|----4-----5--------4-----5-----7--|----4-----5--------4-----5-----7--|
|-2-----3--------2-----3-----5-----|-2-----3--------2-----3-----5-----|
|----------------------------------|----------------------------------|
|----------------------------------|----------------------------------|

|-5-----7-----7--5-----7-----9-----|-5-----7-----7--5-----7-----9-----|
|----------------------------------|----------------------------------|
|----5-----7--------5-----7-----9--|----5-----7--------5-----7-----9--|
|-3-----5--------3-----5-----7-----|-3-----5--------3-----5-----7-----|
|----------------------------------|----------------------------------|
|----------------------------------|----------------------------------|

  |     |        |     |     |       |     |        |     |     |
|-9-----10----10-9-----10----12----|-9-----10----10-9-----10----12----|
|----------------------------------|----------------------------------|
|----9-----10-------9-----10----12-|----9-----10-------9-----10----12-|
|-7-----8--------7-----8-----10----|-7-----8--------7-----8-----10----|
|----------------------------------|----------------------------------|
|----------------------------------|----------------------------------|


  |     |     |        |     |       |     |     |        |     |
|-12----13----12----12-13----15----|-12----13----12----12-13----15----|
|----------------------------------|----------------------------------|
|----12----13----12-------13----15-|----12----13----12-------13----15-|
|-10----11----10-------11----13----|-10----11----10-------11----13----|
|----------------------------------|----------------------------------|
|----------------------------------|----------------------------------|

  |     |     |        |     |       |     |     |        |     |
|-9-----10----9-----9--10----12----|-9-----10----9-----9--10----12----|
|----------------------------------|----------------------------------|
|----9-----10----9--------10----12-|----9-----10----9--------10----12-|
|-7-----8-----7--------8-----10----|-7-----8-----7--------8-----10----|
|----------------------------------|----------------------------------|
|----------------------------------|----------------------------------|

  |     |     |        |     |       |     |     |        |     |
|-5-----7-----5-----5--7-----9-----|-5-----7-----5-----5--7-----9-----|
|----------------------------------|----------------------------------|
|----5-----7-----5--------7-----9--|----5-----7-----5--------7-----9--|
|-3-----5-----3--------5-----7-----|-3-----5-----3--------5-----7-----|
|----------------------------------|----------------------------------|
|----------------------------------|----------------------------------|

  |     |     |        |     |       |     |     |        |     |
|-4-----5-----4-----4--5-----7-----|-4-----5-----4-----4--5-----7-----|
|----------------------------------|----------------------------------|
|----4-----5-----4--------5-----7--|----4-----5-----4--------5-----7--|
|-2-----3-----2--------3-----5-----|-2-----3-----2--------3-----5-----|
|----------------------------------|----------------------------------|
|----------------------------------|----------------------------------|


  |     |        |     |     |       |     |        |     |     |
|-0-----1-----1--0-----1-----3-----|-0-----1-----1--0-----1-----3-----|
|----0-----1--------0-----1-----3--|----0-----1--------0-----1-----3--|
|----------------------------------|----------------------------------|
|-2-----3--------2-----3-----5-----|-2-----3--------2-----3-----5-----|
|----------------------------------|----------------------------------|
|----------------------------------|----------------------------------|

  |     |        |     |     |       |     |        |     |     |
|-0-----0-----0--0-----0-----0-----|-0-----0-----0--0-----0-----0-----|
|----0-----1--------0-----1-----3--|----0-----1--------0-----1-----3--|
|----------------------------------|----------------------------------|
|-2-----3--------2-----3-----5-----|-2-----3--------2-----3-----5-----|
|----------------------------------|----------------------------------|
|----------------------------------|----------------------------------|

  |     |        |     |     |       |     |        |     |     |
|-0-----0-----0--0-----0-----0-----|-0-----0-----0--0-----0-----0-----|
|----0-----1--------0-----0-----0--|----0-----1--------0-----0-----0--|
|----------------------------------|----------------------------------|
|-2-----3--------2-----2-----2-----|-2-----3--------2-----2-----2-----|
|----------------------------------|----------------------------------|
|----------------------------------|----------------------------------|

  |     |        |     |     |
|-0-----0-----0--0-----0-----0~~---|
|----0-----1--------0-----0--------|
|----------------------------------|
|-2-----3--------2-----2-----2~~---|
|----------------------------------|
|----------------------------------|
            
Submit corrections


        Below The Moon  lessons Hard to play? Try these video lessons and learn fast Below The Moon  lessons
        
↑ Back to top | Tablatures and chords for acoustic guitar and electric guitar, ukulele, drums are parodies/interpretations of the original songs. You may use it for private study, scholarship, research or language learning purposes only