» » »

Strung Out - Unkoil Tabs

Artists:  A B C D E F G H I J K L M N O P Q R S T U V W X Y Z # 

Unkoil Tabs

(ver. 1) Click to play this song!
Strung Out
 Rating:
4/5 (4 votes)

 Unkoil lessons Tabs too difficult? Try these video lessons and learn fast
 
                

standard D or full D tuning 

this is a great song from my favorite band, use lots of distortion 

Intro (for the first part use a wah peddal in the up position) 
D|---------------------------------------------------------------- 
A|---------------------------------------------------------------- 
F|---------------------------------------------------------------- 
C|---------------------------------------------------------------- 
G|--7-7-7-7-7-7-7-7-7-7-7-7-7-7-7-7------------------------------- 
D|-0-0-0-0-0-0-0-0-0-0-0-0-0-0-0-0-------------------------------- 

D|-00000000000000-777-88888888888888------------------------------ 
A|-55555555555555-555-55555555555555------------------------------ 
F|---------------------------------------------------------------- 
C|---------------------------------------------------------------- 
G|---------------------------------------------------------------- 
D|---------------------------------------------------------------- 

x 16 
D|---------3------------------------------------------------------ 
A|-5-3-5-3---5-3-0------------------------------------------------ 
F|---------------------------------------------------------------- 
C|---------------------------------------------------------------- 
G|---------------------------------------------------------------- 
D|---------------------------------------------------------------- 

Verse x 4 
D|---------------------------------------------------------------- 
A|---------------------------------------------------------------- 
F|---------------------------------------------------------------- 
C|----------------444-55555555555555-777-------------------------- 
G|-22222222222222-222-33333333333333-555-------------------------- 
D|-00000000000000------------------------------------------------- 


D|---------------------------------------------------------------- 
A|---------------------------------------------------------------- 
F|---------------------------------------------------------------- 
C|-7777777777777777-5555555555555555------------------------------ 
G|-5555555555555555-3333333333333333------------------------------ 
D|---------------------------------------------------------------- 

D|---------------------------------------------------------------- 
A|---------------------------------------------------------------- 
F|---------------------------------------------------------------- 
C|-7777777777777777-55555555-22222-------------------------------- 
G|-5555555555555555-33333333-44444-555---------------------------- 
D|---------------------------------333---------------------------- 

Bridge (Jake) 
D|---------------------------------------------------------------- 
A|---------------------------------------------------------------- 
F|---------------------------------------------------------------- 
C|---------------------------------------------------------------- 
G|-22-------------22------22-------------------------------------- 
D|-00-------------00------00-------------------------------------- 

(Rob) 
D|-33333333333333-121212-88888888888888--------------------------- 
A|-55555555555555-0-0-0--00000000000000--------------------------- 
F|---------------------------------------------------------------- 
C|---------------------------------------------------------------- 
G|---------------------------------------------------------------- 
D|---------------------------------------------------------------- 

Verse x 4 (Jake) 
D|---------------------------------------------------------------- 
A|---------------------------------------------------------------- 
F|---------------------------------------------------------------- 
C|----------------444-55555555555555-777-------------------------- 
G|-22222222222222-222-33333333333333-555-------------------------- 
D|-00000000000000------------------------------------------------- 

Verse x 8 (Rob) comes in 2nd time 
D|---------3------------------------------------------------------ 
A|-5-3-5-3---5-3-0------------------------------------------------ 
F|---------------------------------------------------------------- 
C|---------------------------------------------------------------- 
G|---------------------------------------------------------------- 
D|---------------------------------------------------------------- 

Chorus 
D|----------------------------------------------------------------- 
A|----------------------------------------------------------------- 
F|----------------------------------------------------------------- 
C|-99999999999999-55555555555555----------------------------------- 
G|-77777777777777-33333333333333-77777777777777-99999999999999-10-- 
D|-------------------------------55555555555555-77777777777777-8--- 

D|-------------------------------------------------------------------------- 
A|-------------------------------------------------------------------------- 
F|----------121212-11-9----------------------------------------------------- 
C|-99999999--------------55555555555555-----------------------------------9- 
G|-77777777-101010-9--7--33333333333333-77777777777777-99999999999999-10--7- 
D|--------------------------------------55555555555555-77777777777777-8----- 

2nd Bridge x 4 
D|---------------------------------------------------------------- 
A|---------------------------------------------------------------- 
F|---------------------------------------------------------------- 
C|---------------------------------------------------------------- 
G|-2222-3333-----22-33-------------------------------------------- 
D|-0000-1111-----00-11-------------------------------------------- 


Repeat Chorus 
            
Submit corrections


        Unkoil lessons Hard to play? Try these video lessons and learn fast Unkoil lessons
        
↑ Back to top | Tablatures and chords for acoustic guitar and electric guitar, ukulele, drums are parodies/interpretations of the original songs. You may use it for private study, scholarship, research or language learning purposes only