» » »

Strung Out - Too Close Too See Tabs

Artists:  A B C D E F G H I J K L M N O P Q R S T U V W X Y Z # 

Too Close Too See Tabs

(ver. 1) Click to play this song!
Strung Out
 Rating:
4/5 (4 votes)

 Too Close Too See lessons Tabs too difficult? Try these video lessons and learn fast
 
                Rob:
			 (2x)  			   
d|--0000000000000000000000--|    
A|--5555555555555555555555--|
F|--------------------------|
C|--------------------------|
G|--------------------------|
D|--------------------------|

(0:05):

d|--00000000000-000-000-00--00000000000-000-000-00-00000000000-000-000-00-0000000000--0...--|   
A|--55555555555-444-555-77--55555555555-999-777-99-55555555555-444-555-77-9999999999-12...--|
F|------------------------------------------------------------------------------------------|
C|------------------------------------------------------------------------------------------|
G|------------------------------------------------------------------------------------------|
D|------------------------------------------------------------------------------------------|


Jake:

d|---------------------------|    
A|---------------------------|    
F|---------------------------|
C|---------------------------|
G|----------------------2...-|
D|----------------------0...-|

(0:05):

d|---------------------------------------------------------------------------|
A|---------------------------------------------------------------------------|
F|---------------------------------------------------------------------------|
C|--99999999---------111111111----------99999999-----------------------------|
G|--77777777-99999999-99999999-77777777-77777777-99999999-77777777777777777--|
D|-----------77777777----------55555555----------77777777-55555555555555555--|


Verse Riff(0:16)


Jake & Rob:
					
d|------------------------------------------------------------------------------|
A|------------------------------------------------------------------------------|
F|------------------------------------------------------------------------------|
C|--99999999----------66666666----------99999999----------66666666----------9R--|
G|--77777777-99999999-44444444-77777777-77777777-99999999-44444444-77777777-7R--|
D|-----------77777777----------55555555----------77777777----------55555555-----|


Intro Riff Repeated (0:26)


-Jake plays his same riff once, while Rob plays the following-
Rob:
	
d|--000000R--00000-000-000-00--00000000000-000-000-00-00000000000-000-000-00--0-0-0--0---0...--|   
A|--555555R--55555-444-555-77--55555555555-999-777-99-55555555555-444-555-77-1010-9-10--12...--|
F|---------------------------------------------------------------------------------------------|
C|---------------------------------------------------------------------------------------------|
G|---------------------------------------------------------------------------------------------|
D|---------------------------------------------------------------------------------------------|


Verse Riff Repeated (0:38)


Rob plays the same verse riff as before, while on the second time Jake plays the following-
Jake:
	
d|-------------------------------------------------|
A|-------------------------------------------------|
F|--99999999-88888888-99999999---------------------|
C|--xxxxxxxx-xxxxxxxx-xxxxxxxx-7777----------------|
G|--77777777-66666666-77777777-xxxx----------------|
D|-----------------------------5555-/pick scr*pe\--|

Chorus Riff (0:48)


Jake & Rob:

d|------------------------------0---------------------------------------|
A|-------------------------------0--------------------------------------|
F|----------------------------------------------------------------------|
C|-666666666-99999999--------------666666666-99999999-------------------|
G|-444444444-77777777-9999999-77---444444444-77777777-9999999-77777777--|
D|-----------00000000-7777777-55-------------00000000-7777777-55555555--|

Interlude Riff (0:59)


Jake & Rob:
			   (2x)
d|----------------------------|
A|----------------------------|
F|-------8-8889-999-11-9-8-9--|
C|--9-9996-6667-777--9-7-6-7--|
G|--7-777---------------------|
D|----------------------------|
      ...  ...  ...

Verse Riff Repeated (1:04)


Breakdown Riff (1:15)


Rob:
                        (6x)
d|-------------------------|
A|-------------------------|
F|-------------------------|
C|--99xx-------------------|
G|--77xx-99999-44xx-77777--|
D|-------77777-22xx-55555--|

Jake:
                                                  (4x)
d|-------------------------|-------------------------|
A|-------------------------|-------------------------|
F|-------------------------|-------------------------|
C|-------------------------|--999x-------------------|
G|--2...-------------------|--777x-99999-777x-99999--|
D|--0...-------------------|-------77777-555x-77777--|


Jake's Solo (1:32)



d|-----4p0-----4p0-2p0-----2p0---------4p0-----4p0-2p0----2p0-------|
A|-2p0-----2p0---------4p0-----4p0-2p0-----2p0---------4p0----4p0---|
F|------------------------------------------------------------------|
C|------------------------------------------------------------------|
G|------------------------------------------------------------------|
D|------------------------------------------------------------------|
									
d|-----7p0-----7p0-----7p0-----7p0-9p0-7p0-5p0-4p0-5p0-4p0-2p0-0----|
A|-5p0-----5p0-----5p0-----5p0--------------------------------------|
F|------------------------------------------------------------------|
C|------------------------------------------------------------------|
G|------------------------------------------------------------------|
D|------------------------------------------------------------------|

d|-----4p0-----4p0-2p0-----2p0---------4p0-----4p0-2p0----2p0-------|
A|-2p0-----2p0---------4p0-----4p0-2p0-----2p0---------4p0----4p0---|
F|------------------------------------------------------------------|
C|------------------------------------------------------------------|
G|------------------------------------------------------------------|
D|------------------------------------------------------------------|
									
d|-----7p0-----7p0-----7p0-----7p0-9p0-7p0-5p0-4p0-5p0-4p0-2p0-0/12-|
A|-5p0-----5p0-----5p0-----5p0--------------------------------------|
F|------------------------------------------------------------------|
C|------------------------------------------------------------------|
G|------------------------------------------------------------------|
D|------------------------------------------------------------------|

d|---------------------------------------------------------|
A|--10-9-10-9-7t--7h9p7/5b-------7b9b7-5-7-9-7-5-9-7-9/12--|
F|-------------------------4b6b4---------------------------|
C|---------------------------------------------------------|
G|---------------------------------------------------------|
D|---------------------------------------------------------|

Rob's Solo (1:32)


d|-----4p0-----4p0-2p0-----2p0---------4p0-----4p0-2p0----2p0-------|
A|-2p0-----2p0---------4p0-----4p0-2p0-----2p0---------4p0----4p0---|
F|------------------------------------------------------------------|
C|------------------------------------------------------------------|
G|------------------------------------------------------------------|
D|------------------------------------------------------------------|
									
d|-----7p0-----7p0-----7p0-----7p0-9p0-7p0-5p0-4p0-5p0-4p0-2p0-0----|
A|-5p0-----5p0-----5p0-----5p0--------------------------------------|
F|------------------------------------------------------------------|
C|------------------------------------------------------------------|
G|------------------------------------------------------------------|
D|------------------------------------------------------------------|

d|-----4p0-----4p0-2p0-----2p0---------4p0-----4p0-2p0----2p0-------|
A|-2p0-----2p0---------4p0-----4p0-2p0-----2p0---------4p0----4p0---|
F|------------------------------------------------------------------|
C|------------------------------------------------------------------|
G|------------------------------------------------------------------|
D|------------------------------------------------------------------|
									
d|-----7p0-----7p0-----7p0-----7p0-9p0-7p0-5p0-4p0-5p0-4p0-2p0-0/12-|
A|-5p0-----5p0-----5p0-----5p0--------------------------------------|
F|------------------------------------------------------------------|
C|------------------------------------------------------------------|
G|------------------------------------------------------------------|
D|------------------------------------------------------------------|

d|---------------------------------------------------------|
A|--10-9-10-9-7t--7h9p7/5b-------7b9b7-5-7-9-7-5-9-7-9-5---|
F|-------------------------4b6b4---------------------------|
C|---------------------------------------------------------|
G|---------------------------------------------------------|
D|---------------------------------------------------------|

Breakdown Riff (1:53)


Jake & Rob:
									     (3x)
d|------------------------------------------------------------------------------|
A|--------9-------9-10--------9-------9-10--------9------9-10-11---9---11---9---|
F|-9-999-----999--------9999-----999--------9999-----999---------9---9---9------|
C|------------------------------------------------------------------------------|
G|------------------------------------------------------------------------------|
D|------------------------------------------------------------------------------|
     ...     ...        ....     ...        ....     ...         .   .   .

d|-----------------------------------------------------------|
A|--------9-------9-10--------9-------9-10-------------------|
F|-9-999-----999--------9999-----999-------------------------|
C|------------------------------------------6--66------------|
G|------------------------------------------4--44--7...9...--|
D|-------------------------------------------------5...7...--|
     ...     ...        ....     ...

Chorus Riff Variation (2:15)


Jake & Rob:

d|------------------------------0---------------------------------------|
A|-------------------------------0--------------------------------------|
F|----------------------------------------------------------------------|
C|-666666666-99999999--------------666666666-99999999-------------------|
G|-444444444-77777777-9999999-77---444444444-77777777-9...---11...------|
D|-----------00000000-7777777-55-------------00000000-7...----9...------|

Outro Riff (2:39)

-Jake plays the intro riff 2x. Then the verse riff 2x.
Rob:
							    (2x)
d|-------------------------------------------------------------|
A|-------9-----9-10-------9-----9-10-------9----9-10-12101210--|
F|--9-999--999------9-999---999------9-999---999------9-9-9-9--|
C|-------------------------------------------------------------|
G|-------------------------------------------------------------|
D|-------------------------------------------------------------|

d|----------------------------------------------------------------------|
A|-12-10-9--12-10-9--12-10-9--12-10-9--12-10-9--12-10-9--12-10-9-10-----|
F|--9--9-9---9--9-9---9--9-9---9--9-9---9--9-9---9--9-9---9--9-9----9v--|
C|----------------------------------------------------------------------|
G|----------------------------------------------------------------------|
D|----------------------------------------------------------------------|

I think its right read it, rate it tell me wat u think 
            
Submit corrections


        Too Close Too See lessons Hard to play? Try these video lessons and learn fast Too Close Too See lessons
        
↑ Back to top | Tablatures and chords for acoustic guitar and electric guitar, ukulele, drums are parodies/interpretations of the original songs. You may use it for private study, scholarship, research or language learning purposes only