» » »

Strung Out - Gear Box Tabs

Artists:  A B C D E F G H I J K L M N O P Q R S T U V W X Y Z # 

Gear Box Tabs

(ver. 1) Click to play this song!
Strung Out
 Rating:
4.3/5 (15 votes)

 Gear Box lessons Tabs too difficult? Try these video lessons and learn fast
 
                Guitar 1 (D G C F A d) - 'Distortion, Rhythm'
Guitar 2 (D G C F A d) - 'Distortion, Lead'

[Intro]
4/4
   Guitar 1
    E   S S S S E   S S S S E   S S      E    S  S  S  S  E    S  S  S  S  E    S  S
d||------------------------------------|-------------------------------------------------|
A||------------------------------------|-------------------------------------------------|
F||------------------------------------|-------------------------------------------------|
C||--9-----------9-----------9---------|--9----------------9----------------9------------|
G||--7---7-7-7-7-7---7-7-7-7-7---7-7---|--10---10-10-10-10-10---10-10-10-10-10---10-10---|
D||------------------------------------|-------------------------------------------------|
PM|      . . . .     . . . .     . .   |       .  .  .  .       .  .  .  .       .  .    |
 ||                                    |                                                 |
 ||Guitar 2                            |                                                 |
 ||  E  (Q.)        (H)                | (W)                                             |
d||------------------------------------|-------------------------------------------------|
A||------------------------------------|-------------------------------------------------|
F||------------------------------------|-------------------------------------------------|
C||--9---------------------------------|-------------------------------------------------|
G||--7---------------------------------|-------------------------------------------------|
D||------------------------------------|-------------------------------------------------|

  Gtr 1 & 2
    E   S S S S Q       E   E   E        E   S S S S Q       E   Q
d|------------------------------------|------------------------------------|
A|------------------------------------|------------------------------------|
F|------------------------------------|------------------------------------|
C|--5-----------7-------5---4---5-----|--4-----------5-------4---2/--------|
G|--3---3-3-3-3-3-------3---3---3-----|--2---2-2-2-2-2-------2---2/--------|
D|------------------------------------|------------------------------------|
PM      . . . .                       |      . . . .                       |

    E   S S S S E   S S S S E   S S      E    S  S  S  S  E    S  S  S  S  E    S  S
d|------------------------------------|-------------------------------------------------|
A|------------------------------------|-------------------------------------------------|
F|------------------------------------|-------------------------------------------------|
C|--9-----------9-----------9---------|--9----------------9----------------9------------|
G|--7---7-7-7-7-7---7-7-7-7-7---7-7---|--10---10-10-10-10-10---10-10-10-10-10---10-10---|
D|------------------------------------|-------------------------------------------------|
PM      . . . .     . . . .     . .   |       .  .  .  .       .  .  .  .       .  .    |

    E   S S S S Q       E   E   E        E   S S S S Q       E   Q
d|------------------------------------|------------------------------------|
A|------------------------------------|------------------------------------|
F|------------------------------------|------------------------------------|
C|--5-----------7-------5---4---5-----|--4-----------5-------4---2/--------|
G|--3---3-3-3-3-3-------3---3---3-----|--2---2-2-2-2-2-------2---2/--------|
D|------------------------------------|------------------------------------|
PM      . . . .                       |      . . . .                       |


[Verse 1]
  Gtr 1 & 2
    E(Q.)  (H)           E Q   E E Q   E      E Q   E E Q   E      E Q   E E Q   E
d|--------------------|--------------------|--------------------|--------------------|
A|--------------------|--------------------|--------------------|--------------------|
F|--------------------|--------------------|--------------------|--------------------|
C|--9-----------------|--5-5---5-5-5---5---|--7-7---7-7-7---7---|--4-4---4-4-4---4---|
G|--7-----------------|--3-3---3-3-3---3---|--5-5---5-5-5---5---|--2-2---2-2-2---2---|
D|--------------------|--------------------|--------------------|--------------------|

    E Q   E E Q   E      E Q   E E Q   E      E Q   E E Q   E      E   S S S S S S E   S S S S S S
d|--------------------|--------------------|--------------------|------------------------------------|
A|--------------------|--------------------|--------------------|------------------------------------|
F|--------------------|--------------------|--------------------|------------------------------------|
C|--9-9---9-9-9---9---|--5-5---5-5-5---5---|--------------------|--4---------------4-----------------|
G|--7-7---7-7-7---7---|--3-3---3-3-3---3---|--5-5---5-5-5---5---|--2---2-2-2-2-2-2-2---2-2-2-2-2-2---|
D|--------------------|--------------------|--3-3---3-3-3---3---|------------------------------------|
PM                    |                    |                    |      . . . . . .     . . . . . .   |

    E Q   E E Q   E      E Q   E E Q   E      E Q   E E Q   E      E Q   E E Q   E
d|--------------------|--------------------|--------------------|--------------------|
A|--------------------|--------------------|--------------------|--------------------|
F|--------------------|--------------------|--------------------|--------------------|
C|--9-9---9-9-9---9---|--5-5---5-5-5---5---|--7-7---7-7-7---7---|--4-4---4-4-4---4---|
G|--7-7---7-7-7---7---|--3-3---3-3-3---3---|--5-5---5-5-5---5---|--2-2---2-2-2---2---|
D|--------------------|--------------------|--------------------|--------------------|

    E Q   E E Q   E      E Q   E E Q   E      E Q   E E Q   E      E Q   E H
d|--------------------|--------------------|--------------------|--------------------|
A|--------------------|--------------------|--------------------|--------------------|
F|--------------------|--------------------|--------------------|--------------------|
C|--9-9---9-9-9---9---|--5-5---5-5-5---5---|--5-5---5-5-5---5---|--7-7---7-[Pick ----|
G|--7-7---7-7-7---7---|--3-3---3-3-3---3---|--3-3---3-3-3---3---|--5-5---5- slide]---|
D|--------------------|--------------------|--------------------|--------------------|


[Chorus 1]
  Gtr 1 & 2
     E Q   E E Q   E      E Q   E E Q   E      E Q   E E Q   E      E Q   E E Q   E
d||--------------------|--------------------|--------------------|--------------------|
A||o-------------------|--------------------|--------------------|--------------------|
F||--------------------|--------------------|--------------------|--------------------|
C||--------------------|--------------------|--------------------|--------------------|
G||o-5-5---5-5-5---5---|--5-5---5-5-5---5---|--9-9---9-9-9---9---|--9-9---9-9-9---9---|
D||--3-3---3-3-3---3---|--3-3---3-3-3---3---|--7-7---7-7-7---7---|--7-7---7-7-7---7---|

    E Q   E E Q   E      E Q   E E Q   E      E Q   E E Q   E      E   S S S S S S Q       Q        (x2)
d|--------------------|--------------------|--------------------|------------------------------------||
A|--------------------|--------------------|--------------------|-----------------------------------o||
F|--------------------|--7-7---7-7-7---7---|--------------------|------------------------------------||
C|--9-9---9-9-9---9---|--5-5---5-5-5---5---|--5-5---5-5-5---5---|--5---------------5-------7---------||
G|--7-7---7-7-7---7---|--------------------|--3-3---3-3-3---3---|--3---3-3-3-3-3-3-3-------5--------o||
D|--------------------|--------------------|--------------------|------------------------------------||
PM                    |                    |                    |      . . . . . .                   ||


[Post-Chorus 1]
  Gtr 1 & 2
    E   S S S S E   S S S S E  (E)
d|------------------------------------|
A|------------------------------------|
F|------------------------------------|
C|--9---------------------------------|
G|--7-----------2-----------2---------|
D|------0-0-0-0-0---0-0-0-0-0---------|
PM      . . . .     . . . .           |

     E   S S S S E   S S S S E   S S      E    S  S  S  S  E    S  S  S  S  E    S  S
d||------------------------------------|-------------------------------------------------|
A||o-----------------------------------|-------------------------------------------------| [Guitar 2 doesn't
F||------------------------------------|-------------------------------------------------| play the first bar
C||--9-----------9-----------9---------|--9----------------9----------------9------------| of this line on the
G||o-7---7-7-7-7-7---7-7-7-7-7---7-7---|--10---10-10-10-10-10---10-10-10-10-10---10-10---| first run through]
D||------------------------------------|-------------------------------------------------|
PM|      . . . .     . . . .     . .   |       .  .  .  .       .  .  .  .       .  .    |

    E   S S S S Q       E   E   E        E   S S S S Q       E   Q        (x2)
d|------------------------------------|------------------------------------||
A|------------------------------------|-----------------------------------o||
F|------------------------------------|------------------------------------||
C|--5-----------7-------5---4---5-----|--4-----------5-------4---2/--------||
G|--3---3-3-3-3-3-------3---3---3-----|--2---2-2-2-2-2-------2---2/-------o||
D|------------------------------------|------------------------------------||
PM      . . . .                       |      . . . .                       ||


[Verse 2]
  Gtr 1 & 2
    E Q   E E Q   E      E Q   E E Q   E      E Q   E E Q   E      E Q   E E Q   E
d|--------------------|--------------------|--------------------|--------------------|
A|--------------------|--------------------|--------------------|--------------------|
F|--------------------|--------------------|--------------------|--------------------|
C|--9-9---9-9-9---9---|--5-5---5-5-5---5---|--7-7---7-7-7---7---|--4-4---4-4-4---4---|
G|--7-7---7-7-7---7---|--3-3---3-3-3---3---|--5-5---5-5-5---5---|--2-2---2-2-2---2---|
D|--------------------|--------------------|--------------------|--------------------|

    E Q   E E Q   E      E Q   E E Q   E      E Q   E E Q   E      E   S S E   E   E   E   E   E
d|--------------------|--------------------|--------------------|------------------------------------|
A|--------------------|--------------------|--------------------|------------------------------------|
F|--------------------|--------------------|--------------------|------------------------------------|
C|--9-9---9-9-9---9---|--5-5---5-5-5---5---|--------------------|--4---------------4-------4---------|
G|--7-7---7-7-7---7---|--3-3---3-3-3---3---|--5-5---5-5-5---5---|--2---2-2-2---2---2---2---2---2-----|
D|--------------------|--------------------|--3-3---3-3-3---3---|------------------------------------|
PM                    |                    |                    |      . . .   .       .       .     |

    E Q   E E Q   E      E Q   E E Q   E      E Q   E E Q   E      E Q   E E Q   E
d|--------------------|--------------------|--------------------|--------------------|
A|--------------------|--------------------|--------------------|--------------------|
F|--------------------|--------------------|--------------------|--------------------|
C|--9-9---9-9-9---9---|--5-5---5-5-5---5---|--7-7---7-7-7---7---|--4-4---4-4-4---4---|
G|--7-7---7-7-7---7---|--3-3---3-3-3---3---|--5-5---5-5-5---5---|--2-2---2-2-2---2---|
D|--------------------|--------------------|--------------------|--------------------|

    E Q   E E Q   E      E Q   E E Q   E      E Q   E E Q   E      E Q   E H
d|--------------------|--------------------|--------------------|--------------------|
A|--------------------|--------------------|--------------------|--------------------|
F|--------------------|--------------------|--------------------|--------------------|
C|--9-9---9-9-9---9---|--5-5---5-5-5---5---|--5-5---5-5-5---5---|--7-7---7-[Pick ----|
G|--7-7---7-7-7---7---|--3-3---3-3-3---3---|--3-3---3-3-3---3---|--5-5---5- slide]---|
D|--------------------|--------------------|--------------------|--------------------|


[Chorus 2]
  Gtr 1 & 2
     E Q   E E Q   E      E Q   E E Q   E      E Q   E E Q   E      E Q   E E Q   E
d||--------------------|--------------------|--------------------|--------------------|
A||o-------------------|--------------------|--------------------|--------------------|
F||--------------------|--------------------|--------------------|--------------------|
C||--------------------|--------------------|--------------------|--------------------|
G||o-5-5---5-5-5---5---|--5-5---5-5-5---5---|--9-9---9-9-9---9---|--9-9---9-9-9---9---|
D||--3-3---3-3-3---3---|--3-3---3-3-3---3---|--7-7---7-7-7---7---|--7-7---7-7-7---7---|

    E Q   E E Q   E      E Q   E E Q   E      E Q   E E Q   E      E   S S S S S S Q       Q        (x2)
d|--------------------|--------------------|--------------------|------------------------------------||
A|--------------------|--------------------|--------------------|-----------------------------------o||
F|--------------------|--7-7---7-7-7---7---|--------------------|------------------------------------||
C|--9-9---9-9-9---9---|--5-5---5-5-5---5---|--5-5---5-5-5---5---|--5---------------5-------7---------||
G|--7-7---7-7-7---7---|--------------------|--3-3---3-3-3---3---|--3---3-3-3-3-3-3-3-------5--------o||
D|--------------------|--------------------|--------------------|------------------------------------||
PM                    |                    |                    |      . . . . . .                   ||


[Bridge Part 1]
  Gtr 1 & 2
    W                   +W                    W                   +W
d|--------------------|--------------------|--------------------|--------------------|
A|--------------------|--------------------|--------------------|--------------------|
F|--------------------|--------------------|--------------------|--------------------|
C|--9-----------------|--------------------|--------------------|--------------------|
G|--7-----------------|--------------------|--5-----------------|--------------------|
D|--------------------|--------------------|--3-----------------|--------------------|

    W                   +W                    W                    H       H
d|--------------------|--------------------|--------------------|--------------------|
A|--------------------|--------------------|--------------------|--------------------|
F|--------------------|--------------------|--------------------|--------------------|
C|--7-----------------|--------------------|--5-----------------|--7-----------------|
G|--5-----------------|--------------------|--3-----------------|--5-------[Pick ----|
D|--------------------|--------------------|--------------------|---------- slide]---|

  Gtr 1
    E Q   E E Q   E      E Q   E E Q   E      E  Q    E  E  Q    E       E  Q    E  E  Q    E
d|--------------------|--------------------|--------------------------|--------------------------|
A|--------------------|--------------------|--------------------------|--------------------------|
F|--------------------|--------------------|--------------------------|--------------------------|
C|--9-9---9-9-9---9---|--9-9---9-9-9---9---|--------------------------|--------------------------|
G|--7-7---7-7-7---7---|--7-7---7-7-7---7---|--5--5----5--5--5----5----|--5--5----5--5--5----5----|
D|--------------------|--------------------|--3--3----3--3--3----3----|--3--3----3--3--3----3----|
 |                    |                    |                          |                          |
 |Gtr 2               |                    |                          |                          |
 |  E Q   E E Q   E   |  E Q   E E Q   E   |  E  Q    E  E  Q    E    |  E  Q    E  E  Q    E    |
d|--------------------|--------------------|--------------------------|--------------------------|
A|--------------------|--------------------|--------------------------|--------------------------|
F|--9-9---9-9-9---9---|--9-9---9-9-9---9---|--12-12---12-12-12---12---|--12-12---12-12-12---12---|
C|--x-x---x-x-x---x---|--x-x---x-x-x---x---|--x--x----x--x--x----x----|--x--x----x--x--x----x----|
G|--7-7---7-7-7---7---|--7-7---7-7-7---7---|--10-10---10-10-10---10---|--10-10---10-10-10---10---|
D|--------------------|--------------------|--------------------------|--------------------------|

    E  Q    E  E  Q    E       E  Q    E  E  Q    E       E Q   E E Q   E      E E E E E E E E
d|--------------------------|--------------------------|--------------------|--------------------|
d|--------------------------|--------------------------|--------------------|--------------------|
F|--------------------------|--------------------------|--------------------|--------------------|
C|--7--7----7--7--7----7----|--7--7----7--7--7----7----|--5-5---5-5-5---5---|--7-7-7-7-7-7-7-7---|
G|--5--5----5--5--5----5----|--5--5----5--5--5----5----|--3-3---3-3-3---3---|--5-5-5-5-5-5-5-5---|
D|--------------------------|--------------------------|--------------------|--------------------|
 |                          |                          |                    |                    |
 |  E  Q    E  E  Q    E    |  E  Q    E  E  Q    E    |  E Q   E E Q   E   |  E E E E E E E E   |
d|--------------------------|--------------------------|--------------------|--------------------|
A|--------------------------|--------------------------|--------------------|--------------------|
F|--11-11---11-11-11---11---|--11-11---11-11-11---11---|--9-9---9-9-9---9---|--------------------|
C|--x--x----x--x--x----x----|--x--x----x--x--x----x----|--x-x---x-x-x---x---|--7-7-7-7-7-7-7-7---|
G|--9--9----9--9--9----9----|--9--9----9--9--9----9----|--7-7---7-7-7---7---|--5-5-5-5-5-5-5-5---|
D|--------------------------|--------------------------|--------------------|--------------------|

  Gtr 1 & 2
    E E E E E E E E      E E E E E E E E      E E E E E E E E      E E E E E E E E
d||--------------------|--------------------|--------------------|--------------------|
A||o-------------------|--------------------|--------------------|--------------------|
F||--------------------|--------------------|--------------------|--------------------|
C||--------------------|--------------------|--------------------|--------------------|
G||o-5-5-5-5-5-5-5-5---|--5-5-5-5-5-5-5-5---|--9-9-9-9-9-9-9-9---|--9-9-9-9-9-9-9-9---|
D||--3-3-3-3-3-3-3-3---|--3-3-3-3-3-3-3-3---|--7-7-7-7-7-7-7-7---|--7-7-7-7-7-7-7-7---|

    Q   E E E E E E      Q   E E E E E E      E E E E E E E E      E E E E E E(Q)   (x2)
d|--------------------|--------------------|--------------------|--------------------||
A|--------------------|--------------------|--------------------|-------------------o||
F|--------------------|--7-----------7-7---|--------------------|--------------------||
C|--9-----------------|--5---5-5-5-5-5-5---|--5-5-5-5-5-5-5-5---|--5-5-5-5-5-7-------||
G|--7---7-7-7-7-7-7---|--------------------|--3-3-3-3-3-3-3-3---|--3-3-3-3-3-5------o||
D|--------------------|--------------------|--------------------|--------------------||
PM      . . . . . .   |      . . . .       |                    |                    ||

    E E E E E E E E      E E E E E E E E      E(Q.)  (H)           W
d|--------------------|--------------------|--------------------|--------------------|
A|--------------------|--------------------|--------------------|--------------------|
F|--------------------|--------------------|--------------------|--------------------|
C|--------------------|--------------------|--------------------|--------------------|
G|--5-5-5-5-5-5-5-5---|--5-5-5-5-5-5-5-5---|--9-----------------|--------------------|
D|--3-3-3-3-3-3-3-3---|--3-3-3-3-3-3-3-3---|--7-----------------|--[Pick slide]------|

    Q   E E E E E E      Q   E E E E E E      E E E E E E E E      E   S S S S S S Q       Q  
d|--------------------|--------------------|--------------------|------------------------------------|
A|--------------------|--------------------|--------------------|------------------------------------|
F|--------------------|--7-----------7-7---|--------------------|------------------------------------|
C|--9-----------------|--5---5-5-5-5-5-5---|--5-5-5-5-5-5-5-5---|--5---------------5-------7---------|
G|--7---7-7-7-7-7-7---|--------------------|--3-3-3-3-3-3-3-3---|--3---3-3-3-3-3-3-3-------5---------|
D|--------------------|--------------------|--------------------|------------------------------------|
PM      . . . . . .   |      . . . .       |                    |      . . . . . .                   |


[Interlude]
  Gtr 1
    E E E E E E E E      E Q   E E Q   E      E Q   E E Q   E      E Q   E E Q   E
d||--------------------|--------------------|--------------------|--------------------|
A||o-------------------|--------------------|--------------------|--------------------|
F||--------------------|--------------------|--------------------|--------------------|
C||--9-----------------|--9-9---9-7-7---7---|--5-5---5-5-5---5---|--7-7---7-4-4---4---|
G||o-7-----2-----2-----|--7-7---7-5-5---5---|--3-3---3-3-3---3---|--5-5---5-2-2---2---|
D||----0-0-0-0-0-0-0---|--------------------|--------------------|--------------------|
PM|    . .   . .   .   |                    |                    |                    |
 ||Gtr 2               |                    |                    |                    |
 ||  E E E E E E E E   |  E Q   E E Q   E   |  E Q   E E Q   E   |  E Q   E E Q   E   |
d||--------------------|--------------------|--------------------|--------------------|
A||o-------------------|--------------------|--------------------|--------------------|
F||--------------------|--------------------|--------------------|--------------------|
C||--9-----------------|--9-9---9-7-7---7---|--5-5---5-5-5---5---|--7-7---7-4-4---4---|
G||o-7-----2-----2-----|--7-7---7-5-5---5---|--3-3---3-3-3---3---|--5-5---5-2-2---2---|
D||----0-0-0-0-0-0-0---|--------------------|--------------------|--------------------|
PM|    . .   . .   .   |                    |                    |                    |

    E E E E E E E E      E  Q    E  E  Q    E       E  Q    E  E  Q    E       E  Q    E  E  Q    E   (x2)
d|--------------------|--------------------------|--------------------------|--------------------------||
A|--------------------|--------------------------|--------------------------|-------------------------o||
F|--------------------|--------------------------|--------------------------|--------------------------||
C|--9-----------------|--9--9----9--7--7----7----|--5--5----5--5--5----5----|--7--7----7--4--4----4----||
G|--7-----2-----2-----|--7--7----7--5--5----5----|--3--3----3--3--3----3----|--5--5----5--2--2----2---o||
D|----0-0-0-0-0-0-0---|--------------------------|--------------------------|--------------------------||
PM    . .   . .   .   |                          |                          |                          ||
 |                    |                          |                          |                          ||
 |  E E E E E E E E   |  E  Q    E  E  Q    E    |  E  Q    E  E  Q    E    |  E  Q    E  E  Q    E    ||
d|--------------------|--------------------------|--------------------------|--------------------------||
A|--------------------|--------------------------|--------------------------|-------------------------o||
F|--------------------|--12-12---12-14-14---14---|--16-16---16-16-16---16---|--14-14---14-11-11---11---||
C|--9-----------------|--x--x----x--x--x----x----|--x--x----x--x--x----x----|--x--x----x--x--x----x----||
G|--7-----2-----2-----|--10-10---10-12-12---12---|--14-14---14-14-14---14---|--12-12---12-9--9----9---o||
D|----0-0-0-0-0-0-0---|--------------------------|--------------------------|--------------------------||
PM    . .   . .   .   |                          |                          |                          ||
                                                                                          [Guitars play pick
                                                                                            slides here on 
[Bridge Part 2]                                                                           second way through]
  Gtr 1 & 2
     E Q   E E Q   E      E Q   E E Q   E      E Q   E E Q   E      E Q   E E Q   E
d|--------------------|--------------------|--------------------|--------------------|
A|--------------------|--------------------|--------------------|--------------------|
F|--------------------|--------------------|--------------------|--------------------|
C|--------------------|--------------------|--------------------|--------------------|
G|--5-5---5-5-5---5---|--5-5---5-5-5---5---|--9-9---9-9-9---9---|--9-9---9-9-9---9---|
D|--3-3---3-3-3---3---|--3-3---3-3-3---3---|--7-7---7-7-7---7---|--7-7---7-7-7---7---|

    E Q   E E Q   E      E Q   E E Q   E      E Q   E E Q   E      E   S S S S S S Q       Q
d|--------------------|--------------------|--------------------|------------------------------------|
A|--------------------|--------------------|--------------------|------------------------------------|
F|--------------------|--7-7---7-7-7---7---|--------------------|------------------------------------|
C|--9-9---9-9-9---9---|--5-5---5-5-5---5---|--5-5---5-5-5---5---|--5---------------5-------7---------|
G|--7-7---7-7-7---7---|--------------------|--3-3---3-3-3---3---|--3---3-3-3-3-3-3-3-------5---------|
D|--------------------|--------------------|--------------------|------------------------------------|
PM                    |                    |                    |      . . . . . .                   |

     E Q   E E Q   E      E Q   E E Q   E      E Q   E E Q   E      E Q   E E E E E
d|--------------------|--------------------|--------------------|--------------------|
A|--------------------|--------------------|--------------------|--------------------|
F|--------------------|--------------------|--------------------|--------------------|
C|--------------------|--------------------|--------------------|--------------------|
G|--5-5---5-5-5---5---|--5-5---5-5-5---5---|--9-9---9-9-9---9---|--9-9---9-9---------|
D|--3-3---3-3-3---3---|--3-3---3-3-3---3---|--7-7---7-7-7---7---|--7-7---7-7-7-7-7---|
PM                    |                    |                    |            . . .   |

    Q   E E E E E E      Q   E E E E E E      E E E E E E E E      E E E E(E)E(Q)
d|--------------------|--------------------|--------------------|--------------------|
A|--------------------|--------------------|--------------------|--------------------|
F|--------------------|--7-----------------|--------------------|--------------------|
C|--9-----------------|--5---5-5-5-5-5-5---|--5-5-5-5-5-5-5-5---|--------5---7-------|
G|--7---7-7-7-7-7-7---|--------------------|--3-3-3-3-3-3-3-3---|--3-3-3-3---5-------|
D|--------------------|--------------------|--------------------|--------------------|
PM      . . . . . .   |      . . . . . .   |                    |  . . .             |


[Outro]
  Gtr 1
    E Q   E E Q   E      E Q   E E Q   E      E Q   E E Q   E      E Q   E E Q   E 
d|--------------------|--------------------|--------------------|--------------------|
A|--------------------|--------------------|--------------------|--------------------|
F|--------------------|--------------------|--------------------|--------------------|
C|--------------------|--------------------|--4-4---4-4-4---4---|--4-4---4-4-4---4---|
G|--5-5---5-5-5---5---|--5-5---5-5-5---5---|--2-2---2-2-2---2---|--2-2---2-2-2---2---|
D|--3-3---3-3-3---3---|--3-3---3-3-3---3---|--------------------|--------------------|
 |                    |                    |                    |                    |
 |Gtr 2               |                    |                    |                    |
 |  E Q   E E Q   E   |  E Q   E E Q   E   |  E Q   E E Q   E   |  E Q   E E Q   E   |
d|--3-3---3-3-3---3---|--3-3---3-3-3---3---|--3-3---3-3-3---3---|--3-3---3-3-3---3---|
A|--3-3---3-3-3---3---|--3-3---3-3-3---3---|--3-3---3-3-3---3---|--3-3---3-3-3---3---|
F|--------------------|--------------------|--------------------|--------------------|
C|--------------------|--------------------|--------------------|--------------------|
G|--------------------|--------------------|--------------------|--------------------|
D|--------------------|--------------------|--------------------|--------------------|

    E Q   E E Q   E      E Q   E E Q   E      E Q   E E Q   E      E Q   E H
d|--------------------|--------------------|--------------------|--------------------|
A|--------------------|--------------------|--------------------|--------------------|
F|--------------------|--------------------|--------------------|--------------------|
C|--5-5---5-5-5---5---|--5-5---5-5-5---5---|--7-7---7-7-7---7---|--7-7---7-[Pick ----|
G|--3-3---3-3-3---3---|--3-3---3-3-3---3---|--5-5---5-5-5---5---|--5-5---5- slide]---|
D|--------------------|--------------------|--------------------|--------------------|
 |                    |                    |                    |                    |
 |  E Q   E E Q   E   |  E Q   E E Q   E   |  E Q   E E Q   E   |  E Q   E E Q   E   |
d|--3-3---3-3-3---3---|--3-3---3-3-3---3---|--5-5---5-5-5---5---|--5-5---5-5-5---5---|
A|--3-3---3-3-3---3---|--3-3---3-3-3---3---|--3-3---3-3-3---3---|--3-3---3-3-3---3---|
F|--------------------|--------------------|--------------------|--------------------|
C|--------------------|--------------------|--------------------|--------------------|
G|--------------------|--------------------|--------------------|--------------------|
D|--------------------|--------------------|--------------------|--------------------|

    E Q   E E Q   E      E Q   E E Q   E      E Q   E E Q   E      E Q   E E Q   E 
d|--------------------|--------------------|--------------------|--------------------|
A|--------------------|--------------------|--------------------|--------------------|
F|--------------------|--------------------|--------------------|--------------------|
C|--------------------|--------------------|--4-4---4-4-4---4---|--4-4---4-4-4---4---|
G|--5-5---5-5-5---5---|--5-5---5-5-5---5---|--2-2---2-2-2---2---|--2-2---2-2-2---2---|
D|--3-3---3-3-3---3---|--3-3---3-3-3---3---|--------------------|--------------------|
 |                    |                    |                    |                    |
 |  E Q   E E Q   E   |  E Q   E E Q   E   |  E Q   E E Q   E   |  E Q   E E Q   E   |
d|--3-3---3-3-3---3---|--5-5---5-5-5---5---|--3-3---3-3-3---3---|--5-5---5-5-5---5---|
A|--3-3---3-3-3---3---|--3-3---3-3-3---3---|--3-3---3-3-3---3---|--3-3---3-3-3---3---|
F|--------------------|--------------------|--------------------|--------------------|
C|--------------------|--------------------|--------------------|--------------------|
G|--------------------|--------------------|--------------------|--------------------|
D|--------------------|--------------------|--------------------|--------------------|

    E Q   E E Q   E      E Q   E E Q   E 
d|--------------------|--------------------|
A|--------------------|--------------------|
F|--------------------|--------------------|
C|--5-5---5-5-5---5---|--7-7---7-7-7---7---|
G|--3-3---3-3-3---3---|--5-5---5-5-5---5---|
D|--------------------|--------------------|
 |                    |                    |
 |  E Q   E E Q   E   |  E Q   E E Q   E   |
d|--3-3---3-3-3---3---|--5-5---5-5-5---5---|
A|--3-3---3-3-3---3---|--3-3---3-3-3---3---|
F|--------------------|--------------------|
C|--------------------|--------------------|
G|--------------------|--------------------|
D|--------------------|--------------------|


    W                   +W                    E Q   E E Q   E      E Q   E E Q   E
d|--------------------|--------------------|--------------------|--------------------|
A|--------------------|--------------------|--------------------|--------------------|
F|--------------------|--------------------|--------------------|--------------------|
C|--------------------|--------------------|--------------------|--------------------|
G|--5-----------------|--------------------|----2-------2-------|----2-------2-------|
D|--3-----------------|--------------------|--0-0---0-0-0---0---|--0-0---0-0-0---0---|
PM                    |                    |  .     . .     .   |  .     . .     .   |
 |                    |                    |                    |                    |
 |  E Q   E E Q   E   |  E Q   E E Q   E   |  E Q   E E Q   E   |  E Q   E E Q   E   |
d|--------------------|--------------------|--------------------|--------------------|
A|--------------------|--------------------|--------------------|--------------------|
F|----------7---------|----------7---------|----------7---------|----------7---------|
C|--5-5---5---5---5---|--5-5---5---5---5---|--5-5---5---5---5---|--5-5---5---5---5---|
G|--------------------|--------------------|--------------------|--------------------|
D|--------------------|--------------------|--------------------|--------------------|

    E Q   E E Q   E      E Q   E E Q   E      E Q   E E Q   E      E Q   E E Q   E   
d|--------------------|--------------------|--------------------|--------------------|
A|--------------------|--------------------|--------------------|--------------------|
F|--------------------|--------------------|--------------------|--------------------|
C|--5-5---5-5-5---5---|--7-7---7-7-7---7---|--------------------|--------------------|
G|--3-3---3-3-3---3---|--5-5---5-5-5---5---|--5-5---5-5-5---5---|--5-5---5-5-5---5---|
D|--------------------|--------------------|--3-3---3-3-3---3---|--3-3---3-3-3---3---|
 |                    |                    |                    |                    |
 |  E Q   E E Q   E   |  E Q   E E Q   E   |  E Q   E E Q   E   |  E Q   E E Q   E   |
d|--------------------|--------------------|--------------------|--------------------|
A|--------------------|--------------------|--------------------|--------------------|
F|----------7---------|--5-------4---------|----------7---------|--5-------4---------|
C|--5-5---5---5---5---|----5---5---5---4---|--5-5---5---5---5---|----5---5---5---4---|
G|--------------------|--------------------|--------------------|--------------------|
D|--------------------|--------------------|--------------------|--------------------|

    E Q   E E Q   E      E Q   E E Q   E      E Q   E E Q   E      E Q   E E Q   E  
d|--------------------|--------------------|--------------------|--------------------|
A|--------------------|--------------------|--------------------|--------------------|
F|--------------------|--------------------|--------------------|--------------------|
C|--9-9---9-9-9---9---|--9-9---9-9-9---9---|--5-5---5-5-5---5---|--7-7---7-7-7---7---|
G|--7-7---7-7-7---7---|--7-7---7-7-7---7---|--3-3---3-3-3---3---|--5-5---5-5-5---5---|
D|--------------------|--------------------|--------------------|--------------------|
 |                    |                    |                    |                    |
 |  E Q   E E Q   E   |  E Q   E E Q   E   |  E Q   E E Q   E   |  E Q   E E Q   E   |
d|--------------------|--------------------|--------------------|--------------------|
A|--------------------|--------------------|--------------------|--------------------|
F|----------7---------|--5-------4---------|----------7---------|--5-------4---------|
C|--5-5---5---5---5---|----5---5---5---4---|--5-5---5---5---5---|----5---5---5---4---|
G|--------------------|--------------------|--------------------|--------------------|
D|--------------------|--------------------|--------------------|--------------------|

    E Q   E E Q   E      E Q   E E Q   E      E Q   E E Q   E      E Q   E E Q   E  
d|--------------------|--------------------|--------------------|--------------------|
A|--------------------|--------------------|--------------------|--------------------|
F|--------------------|--------------------|--------------------|--------------------|
C|--------------------|--------------------|--------------------|--------------------|
G|--5-5---5-5-5---5---|--5-5---5-5-5---5---|----2-------2-------|----2-------2-------|
D|--3-3---3-3-3---3---|--3-3---3-3-3---3---|--0-0---0-0-0---0---|--0-0---0-0-0---0---|
PM                    |                    |  .     . .     .   |  .     . .     .   |
 |                    |                    |                    |                    |
 |  E Q   E E Q   E   |  E Q   E E Q   E   |  E Q   E E Q   E   |  E Q   E E Q   E   |
d|--------------------|--------------------|--------------------|--------------------|
A|--------------------|--------------------|--------------------|--------------------|
F|----------7---------|--5-------4---------|----------7---------|--5-------4---------|
C|--5-5---5---5---5---|----5---5---5---4---|--5-5---5---5---5---|----5---5---5---4---|
G|--------------------|--------------------|--------------------|--------------------|
D|--------------------|--------------------|--------------------|--------------------|

    E Q   E E Q   E      E Q   E E Q   E      -
d|--------------------|--------------------|--------------------||
A|--------------------|--------------------|--------------------||
F|--------------------|--------------------|--------------------||
C|--5-5---5-5-5---5---|--7-7---7-7-7---7---|--------------------||
G|--3-3---3-3-3---3---|--5-5---5-5-5---5---|--5-----------------||
D|--------------------|--------------------|--3-----------------||
 |                    |                    |                    ||
 |  E Q   E E Q   E   |  E Q   E E E E E   |  -                 ||
d|--------------------|--------------------|--------------------||
A|--------------------|--------------------|--------------------||
F|----------7---------|--5-------7-5-4-----|--------------------||
C|--5-5---5---5---5---|----5---5-------7---|--5-----------------||
G|--------------------|--------------------|--------------------||
D|--------------------|--------------------|--------------------||

            
Submit corrections


        Gear Box lessons Hard to play? Try these video lessons and learn fast Gear Box lessons
        
↑ Back to top | Tablatures and chords for acoustic guitar and electric guitar, ukulele, drums are parodies/interpretations of the original songs. You may use it for private study, scholarship, research or language learning purposes only