» » »

Strung Out - Cemetery Tabs

Artists:  A B C D E F G H I J K L M N O P Q R S T U V W X Y Z # 

Cemetery Tabs

(ver. 1) Click to play this song!
Strung Out
 Rating:
4/5 (4 votes)

 Cemetery lessons Tabs too difficult? Try these video lessons and learn fast
 
                
full D tuning 

.=palm mute 
v=vibrato 
h=hammer on 

guitar 1 (Jake Kiley) 

chorus 1 x7 
d|-----------------| 
a|-----6-------8---| 
F|-57------9-------| 
C|---00-000-000-00-| 
G|-----------------| 
D|-----------------| 

Verse x2 
d|---------------------| 
a|---------------------| 
F|---------------------| 
C|-7-7>-7-7>-----------| 
G|-5-5>-5-5>-8-8>-5-5>-| 
D|-----------6-6>-3-3>-| 
. . . . 

chorus 1 x4 
verse x2 

chorus 2 x7 
d|------------------| 
a|-----6---8---10---| 
F|-57---------------| 
C|---00-000-000--00-| 
G|------------------| 
D|------------------| 

Harmony 
d|-------------------| 
a|-----5-656-5-------| 
F|-5h7---------7-5-7-| 
C|-------------------| 
G|-------------------| 
D|-------------------| 

Bridge 
d|-----------------------------| 
a|-6--65---------6--65-6/10-8v-| 
F|--7---5--5h7----7------------| 
C|-------5-----0---------------| 
G|-----------------------------| 
D|-----------------------------| 

d|----------------------------------| 
a|-------6--65--------6--65-6/10-8v-| 
F|-5h7----7---5--5h7---7------------| 
C|-----0-------5----0---------------| 
G|----------------------------------| 
D|----------------------------------| 

d|-----------------------------------------| 
a|-------6--65--------6--6-----6666-888888-| 
F|-5h7----7---5--5h7---7--5777-------------| 
C|-----0-------5----0----------------------| 
G|-----------------------------------------| 
D|-----------------------------------------| 

Chorus 1 until end 

----------------------------------------------------------- 

guitar 2 (Rob Ramos) 

intro 
d|---------------------| 
a|---------------------| 
F|---------------------| 
C|---------------------| 
G|-5-5>-5-5>-5-5>-5-5>-| 
D|---------------------| 

Chorus 1 x3 
d|-1010----1313----1212-----------| 
a|-----1010----1010----1010131313-| 
F|--------------------------------| 
C|--------------------------------| 
G|--------------------------------| 
D|--------------------------------| 

Verse 1 
d|--------------------| 
a|--------------------| 
F|------10-10>-12-12>-| 
C|-7-7>---------------| 
G|-5-5>--8--8>-10-10>-| 
D|--------------------| 
. . .. 

verse 2 
d|-------------------------------------------------> 
a|-------------------------------------------------> 
F|---7755--7755--5---7755--7755--5---7755--7755--5-> 
C|-7-----77----77--7-----77----77--------77----77--> 
G|-5---------------5---------------8---------------> 
D|---------------------------------6---------------> 
............. ............. ............. 

d|----------------| 
a|---------6655---| 
F|---7755------75-| 
C|-------77-------| 
G|-5--------------| 
D|-3--------------| 
...... 

chorus 1 x3 

chorus 2 
d|-1010----1313----151312131210--10\-| 
a|-----1010----1010------------13----| 
F|-----------------------------------| 
C|-----------------------------------| 
G|-----------------------------------| 
D|-----------------------------------| 

Verse 3 
d|--------------------------------------------------| 
a|--------------------------------------------------| 
F|-----------14>-12-1712-12>-10/12-10-9-9-10-9-10-9-| 
C|-7-7>-7-7>----------------------------------------| 
G|-5-5>-5-5>-12>-10-1510-10>--8/10--8-7-7--8-7--8-7-| 
D|--------------------------------------------------| 

Verse 2 x1 

Chorus 1 x4 

Chorus 3 
d|-----------------| 
a|-----------------| 
F|-----------------| 
C|-7>--------------| 
G|-5>---8>---33333-| 
D|------6>---11111-| 

Harmony 
d|-------------------| 
a|-----5-65------5---| 
F|---------7-5-7---7-| 
C|-7~----------------| 
G|-5~----------------| 
D|-------------------| 

Bridge (palm mute) x4 
d|------------------------------| 
a|------------------------------| 
F|-7777-1010-99-77-101010-7-9-7-| 
C|-0000--0-0-00-00--0-0-0-0-0-0-| 
G|------------------------------| 
D|------------------------------| 

Bridge 2 
d|----------------------------------------| 
a|----------------------------------------| 
F|-10109977101099771010997710109977101099-| 
C|----------------------------------------| 
G|----------------------------------------| 
D|----------------------------------------| 

Chorus 1 until end 

Sorry no solo 
Have fun 
-----------------------------------------------------------
            
Submit corrections


        Cemetery lessons Hard to play? Try these video lessons and learn fast Cemetery lessons
        
↑ Back to top | Tablatures and chords for acoustic guitar and electric guitar, ukulele, drums are parodies/interpretations of the original songs. You may use it for private study, scholarship, research or language learning purposes only