» » »

Strung Out - Carcrashradio Tabs

Artists:  A B C D E F G H I J K L M N O P Q R S T U V W X Y Z # 

Carcrashradio Tabs

(ver. 1) Click to play this song!
Strung Out
 Rating:
4/5 (4 votes)

 Carcrashradio lessons Tabs too difficult? Try these video lessons and learn fast
 
                Strung Out - Carcrashradio - Solo
Tuning: DGCFAd

CARCRASHRADIO - Guitar Solo (Recorded by Chris, Played live by Jake)

              x   x   x   ^ 
d-|-----|-----------------------------0--------0---0---0---0---0-----------|
A-|-----|-----------------------------5--------5--\4---4--\2---2.p.0-------|
F-|-----|-----------------6.p.4--------------------------------------------|
C-|--4--|-------------6------------------------------------------------2---|
G-|--4--|-----4---7----------------------------------------------------2---|
D-|-\2--|--------------------------------------------------------------0---|
     &    1   &   2   &   3   &   4   &    1   &   2   &   3   &   4   &

        x
d-|------------------------------------------------------------/9---|
A-|-----------------5--/7-------7.h.9-------7-----------------------|
F-|---------4.h.6-----------------------------------9---------------|
C-|-----4-----------------------------------------------------------|
G-|-----------------------------------------------------------------|
D-|-----------------------------------------------------------------|
    1   &   2   &   3   &   4   &   1   &   2   &   3   &   4   &


d-|-----9---12p9-----9--/12--12.h14--14.b16.r14--12.h14.p12---------|
A-|--------------12-----------------------------------------(12)/9--|
F-|-----------------------------------------------------------------|
C-|-----------------------------------------------------------------|
G-|-----------------------------------------------------------------|
D-|-----------------------------------------------------------------|
    1   &   2    &   3   &   4   &   1   &   2   &   3   &   4   &

 
                               ^ ~ 
d-|-------------0-------0-------------------------------------------|
A-|-----9---9---10------9-------------------------------------------|
F-|-------------------------11--9-----------------------------------|
C-|-----------------------------------------------------------------|
G-|-----------------------------------------------------------------|
D-|-----------------------------------------------------------------|
    1   &   2   &   3   &   4   &   1   &   2   &   3   &   4   &

LEGEND:

h  : Hammer-On
p  : Pull-Off
t  : Tapped Note
b  : Bend
r  : Release
m  : Micro Bend (1/4 note)
x  : Palm Mute

&  : Mute Sound (Rest fingers on strings)
#  : Muffled Strings (Pick muffled strings)
@  : Pick Slide
=  : Hold Note
~  : Vibrato
/  : Slide Up
\  : Slide Down
() : Ghost Note
/7): Legato Slide (Don't pick the last note).

$u : Sweep Picking Upstroke
$d : Sweep Picking Downstroke

*  : Natural Harmonic
^  : Pinch Harmonic
!  : Harp Harmonic

|  : Bar
#  : Section
%  : Notes
Fgr: Finger to use
            
Submit corrections


        Carcrashradio lessons Hard to play? Try these video lessons and learn fast Carcrashradio lessons
        
↑ Back to top | Tablatures and chords for acoustic guitar and electric guitar, ukulele, drums are parodies/interpretations of the original songs. You may use it for private study, scholarship, research or language learning purposes only