» » »

Strung Out - Betrayal Tabs

Artists:  A B C D E F G H I J K L M N O P Q R S T U V W X Y Z # 

Betrayal Tabs

(ver. 1) Click to play this song!
Strung Out
 Rating:
4/5 (4 votes)

 Betrayal lessons Tabs too difficult? Try these video lessons and learn fast
 
                Band - Strung out
Song - Betrayal

This is the bass intro…….

G|----------------------------------------------------------------------------------
D|-------------------------------------------------7-8-7-5-8------------------------
A|--5--7-8-7-5-8---7-8-7-5-8---7-8-7-5-8--------------------------------------------
E|------------------9-------------6-------------9-----------------------------------

------------
Now for the lead….. after the first bass thingy play this:

Guitar 2
E|----------------------------------------------------------------------------------
B|----------------------------------------------------------------------------------
G|--7-7--7-9-9--9-10-10--10-12-12--12---------------------------------------------
D|--7-7--7-9-9--9-10-10--10-12-12--12--------------------------------------------
A|--5-5--5-7-7--7-9--9---9--10-10--10--------------------------------------------------
E|----------------------------------------------------------------------------------

Guitar 1 (after guitar 2 has played above twice)
E|----------------------------------------------------------------------------------
B|----------------------------------------------------------------------------------
G|--7------------------7-7-7-7-7-7--5-5-5-5-5-5--3-3-3-3-3-3--5-5-5-5-5-5---------
D|--7--7-5-3-----------7-7-7-7-7-7--5-5-5-5-5-5--3-3-3-3-3-3--5-5-5-5-5-5-----------
A|--5---------7-5-3----5-5-5-5-5-5--3-3-3-3-3-3--1-1-1-1-1-1--3-3-3-3-3-3-----------
E|----------------------------------------------------------------------------------

E|----------------------------------------------------------------------------------
B|----------------------------------------------------------------------------------
G|---7-7-7-7-7-7--5-5-5-5-5-5--3-3-3-3-3-3--5-5--5-5-5------------------------------
D|---7-7-7-7-7-7--5-5-5-5-5-5--3-3-3-3-3-3--5-5--5-5-5------------------------------
A|---5-5-5-5-5-5--3-3-3-3-3-3--1-1-1-1-1-1--3-3--3-3-3------------------------------
E|----------------------------------------------------------------------------------

Now for the main riff……both guitars play: Play this twice
E|----------------------------------------------------------------------------------
B|----------------------------------------------------------------------------------
G|-------------------------------------------------------7-7--5-5-------------------
D|--3-5-6-7-6-5----3-5-6-7-6-5---3-5-6-7-6-5----7-7--5-5----------------------------
A|--3-5-6-7-6-5----3-5-6-7-6-5---3-5-6-7-5-5----5-5--3-3----------------------------
E|--1-3-4-5-4-3----1-3-4-5-4-3---1-3-4-5-4-3----------------------------------------

The second part of the main riff……Play this twice
E|----------------------------------------------------------------------------------
B|----------------------------------------------------------------------------------
G|----------------------------------------------------------------------------------
D|--3-3-3-3-3-3-3-3-3-3-3-3-3-3-3-3--7-----3-3-3-3-3-3-3-3--5-5--3-3----------------
A|--3-3-3-3-3-3-3-3-3-3-3-3-3-3-3-3--7-----3-3-3-3-3-3-3-3--5-5--3-3----------------
E|--1-1-1-1-1-1-1-1-1-1-1-1-1-1-1-1--5-----1-1-1-1-1-1-1-1--3-3--1-1----------------
   |-------------------------------|      |----------------|
                  P.M                            P.M
Play twice again
E|----------------------------------------------------------------------------------
B|----------------------------------------------------------------------------------
G|-------------------------------------------------------7-7--5-5-------------------
D|--3-5-6-7-6-5----3-5-6-7-6-5---3-5-6-7-6-5----7-7--5-5----------------------------
A|--3-5-6-7-6-5----3-5-6-7-6-5---3-5-6-7-5-5----5-5--3-3----------------------------
E|--1-3-4-5-4-3----1-3-4-5-4-3---1-3-4-5-4-3----------------------------------------

Play twice again
E|----------------------------------------------------------------------------------
B|----------------------------------------------------------------------------------
G|----------------------------------------------------------------------------------
D|--3-3-3-3-3-3-3-3-3-3-3-3-3-3-3-3--7-----3-3-3-3-3-3-3-3--5-5--3-3----------------
A|--3-3-3-3-3-3-3-3-3-3-3-3-3-3-3-3--7-----3-3-3-3-3-3-3-3--5-5--3-3----------------
E|--1-1-1-1-1-1-1-1-1-1-1-1-1-1-1-1--5-----1-1-1-1-1-1-1-1--3-3--1-1----------------
   |-------------------------------|      |----------------|
                  P.M                            P.M

Play this without the final chord on the end and then add it the second time.
E|----------------------------------------------------------------------------------
B|----------------------------------------------------------------------------------
G|----------------------------------------------7-7--5-5--7-------------------------
D|--3-5-6-7-6-5----3-5-6-7-6-5---3-5-6-7-6-5----7-7--5-5--7-------------------------
A|--3-5-6-7-6-5----3-5-6-7-6-5---3-5-6-7-5-5----5-5--3-3--5-------------------------
E|--1-3-4-5-4-3----1-3-4-5-4-3---1-3-4-5-4-3----------------------------------------


Solo(s):
Solo 1:Play twice                                                                  
E|----------------------------------------------------------------------------------
B|--------------------------------------------------------------10-11-10------------
G|--7-7-7-7-7-7-7-7---9-9-9-9-9-9-9-9---10-10-10-10-10-10-10-10 --------------------
D|----------------------------------------------------------------------------------
A|----------------------------------------------------------------------------------
E|----------------------------------------------------------------------------------


Solo 2: This solo is basically wrong well it doesn't sound quite right but its not too far off....
E|----------------------------------------------------------------------------------
B|----------------------------------------------------------------------------------
G|----------------------------------------------------------------------------------
D|--12-14-14-15-14-12-10-12--9-10-10-9-7-9-5-7-5-3-5--------------------------------
A|----------------------------------------------------------------------------------
E|----------------------------------------------------------------------------------


Solo 3. (^ = bend) (h=hammer on) (P=pull off)
E|----------------------------------------------------------------------------------
B|----------------------------------^--^--------------------------------------------
G|---------^----------^---^---^--17-19----------------------------------------------
D|---12--14-14-15-17-17-19----------------------------------------------------------
A|----------------------------------------------------------------------------------
E|----------------------------------------------------------------------------------

this is the hard part….it involves fingering tapping:

E|--10h17p13-10h17013-10h17p13-10h17p13-10h17p13-10h17p13---------------------------
B|----------------------------------------------------------------------------------
G|----------------------------------------------------------------------------------
D|----------------------------------------------------------------------------------
A|----------------------------------------------------------------------------------
E|----------------------------------------------------------------------------------

E|--8h15p11-8h15p11-8h15p11-8h15p11—6h13p9-6h13p9-6h13p9-6h13p9---------------------
B|----------------------------------------------------------------------------------
G|----------------------------------------------------------------------------------
D|----------------------------------------------------------------------------------
A|----------------------------------------------------------------------------------
E|----------------------------------------------------------------------------------


E|--5h12p8-5h12p8—4h11p7-4h11p7—3h10p6-3h10p6---------------------------------------
B|----------------------------------------------------------------------------------
G|----------------------------------------------------------------------------------
D|----------------------------------------------------------------------------------
A|----------------------------------------------------------------------------------
E|----------------------------------------------------------------------------------

E|--10h17p13-10h17013-10h17p13-10h17p13-10h17p13-10h17p13---------------------------
B|----------------------------------------------------------------------------------
G|----------------------------------------------------------------------------------
D|----------------------------------------------------------------------------------
A|----------------------------------------------------------------------------------
E|----------------------------------------------------------------------------------

E|--8h15p11-8h15p11-8h15p11-8h15p11—6h13p9-6h13p9-6h13p9-6h13p9---------------------
B|----------------------------------------------------------------------------------
G|----------------------------------------------------------------------------------
D|----------------------------------------------------------------------------------
A|----------------------------------------------------------------------------------
E|----------------------------------------------------------------------------------


E|----7h14p10-8h15p11-9h16p12-10h17p13---17-----------------------------------------
B|----------------------------------------------------------------------------------
G|----------------------------------------------------------------------------------
D|----------------------------------------------------------------------------------
A|----------------------------------------------------------------------------------
E|----------------------------------------------------------------------------------

Play twice 
E|----------------------------------------------------------------------------------
B|----------------------------------------------------------------------------------
G|----------------------------------------------------------------------------------
D|--3-3-3-3-3-3-3-3-3-3-3-3-3-3-3-3--7-----3-3-3-3-3-3-3-3--5-5--3-3----------------
A|--3-3-3-3-3-3-3-3-3-3-3-3-3-3-3-3--7-----3-3-3-3-3-3-3-3--5-5--3-3----------------
E|--1-1-1-1-1-1-1-1-1-1-1-1-1-1-1-1--5-----1-1-1-1-1-1-1-1--3-3--1-1----------------
   |-------------------------------|      |----------------|
                  P.M                            P.M

Play twice 
E|------|---------------------------------------------------------------------------
B|------|---------------------------------------------------------------------------
G|------|------------------------------------------------------7-7--5-5-------------
D|-5-7-|-3-5-6-7-6-5----3-5-6-7-6-5---3-5-6-7-6-5----7-7--5-5-----------------------
A|-5-7-|-3-5-6-7-6-5----3-5-6-7-6-5---3-5-6-7-5-5----5-5--3-3-----------------------
E|-3-5-|-1-3-4-5-4-3----1-3-4-5-4-3---1-3-4-5-4-3-----------------------------------

Play the above riff then add this at the end:
E|----------------------------------------------------------------------------------
B|----------------------------------------------------------------------------------
G|---5-5-3-5------------------------------------------------------------------------
D|---5-5-3-5------------------------------------------------------------------------
A|---7-7-5-7------------------------------------------------------------------------
E|----------------------------------------------------------------------------------
            
Submit corrections


        Betrayal lessons Hard to play? Try these video lessons and learn fast Betrayal lessons
        
↑ Back to top | Tablatures and chords for acoustic guitar and electric guitar, ukulele, drums are parodies/interpretations of the original songs. You may use it for private study, scholarship, research or language learning purposes only