» » »

Strung Out - Ashes Tabs

Artists:  A B C D E F G H I J K L M N O P Q R S T U V W X Y Z # 

Ashes Tabs

(ver. 1) Click to play this song!
Strung Out
 Rating:
4/5 (4 votes)

 Ashes lessons Tabs too difficult? Try these video lessons and learn fast
 
                
BASS.. 
:---5---5---5---5----8---8---8---8----3---3----6---6----5---5---5---5-: 
:-5---5---5---5----8---8---8---8----3---3----6---6----5---5---5---5---: 
:------------------------------------------------: 
:---------------------------------------------------------------------: 

GUITAR.. 
:------intro---------:---------------------A------------------------------: 
:--------------------:----------------------------------------------------: 
:--------------------:----------------------------------------------------: 
:--------3-3-3-3-3---:---------------3-3-3-3-3----------------------------: 
:-5------1-1-1-1-1---:---5-5-5-5-5---1-1-1-1-1----3---6-6-6---5-5-5-5-5---: 
:---:---3-3-3-3-3----------------1---4-4-4---3-3-3-3-3---: 

:---------------------B-------------------------------------: 
:-----------------------------------------------------------: 
:-----------------------------------------------------------: 
:---------------------------3-------------------------------: 
:-4---5-5-5-5---4---5-5-5---1---4---5-5-5-5---2-2-2---3-3-3-: 
:-2---3-3-3-3---2---3-3-3-------2---3-3-3-3---0-0-0---1-1-1-: 

:-------------------C---------------------------: 
:-----------------------------------------------: 
:-----------------------------------------------: 
:-------------3-3-3-3-3-------------------------: 
:-5-5-5-5-5---1-1-1-1-1---3---6-6-6---5-5-5-5-5-: 
:-3-3-3-3-3---------------1---4-4-4---3-3-3-3-3-: 

:-------------------D-------------:------------E--------------: 
:---------------------------------:---------------------------: 
:---------------------------------:---------------------------: 
:-5-5-5-5---3---5-5-5---4-4---7-7-:-----3---------------------: 
:-3-3-3-3---1---3-3-3---6-6---5-5-:-5---1---5---2-2-2---3-3-3-: 
:---------------------------------:-3-------3---0-0-0---1-1-1-: 

:-------------------F---------------------------: 
:-----------------------------------------------: 
:-----------------------------------------------: 
:-------------3-3-3-3-3---5-5-5-5-5---8-8-8-8-8-: 
:-5-5-5-5-5---1-1-1-1-1---3-3-3-3-3---6-6-6-6-6-: 
:-3-3-3-3-3-------------------------------------: 

SOLO.. 
:-------------------------------G------------------------------------------ 
:-------------------------------------------------------------------------- 
:-6/7-7-7--6/7-7-7---6/7-7-7--6-7-8-7--6/7-7-7--6/7-7-7--6/7-7-7--6-7-8-7-- 
:-------------------------------------------------------------------------- 
:-------------------------------------------------------------------------- 
:-------------------------------------------------------------------------- 

:-------------------------------------------------------------------------- 
:------------------------------------------12-12-12-12-12-12-12-12--10-10-1 
:-6/7--4/5--2/3--0/1--4/5--2/3--0/1---------------------------------------- 
:------------------------------------3/4----------------------------------- 
:-------------------------------------------------------------------------- 
:-------------------------------------------------------------------------- 

:-------------------------------------------------------------: 
:-10-10-10--12-12-12-12-12-12--12--14--12--14--12--14--12--14-: 
:-------------------------------------------------------------: 
:-------------------------------------------------------------: 
:-------------------------------------------------------------: 
:-------------------------------------------------------------: 

:--------------------H---------------------------: 
:------------------------------------------------: 
:------------------------------------------------: 
:------------------------------------------------: 
:-2-2-2-2-2--3-3-3-3-3--5-5-5-5-5----------------: 
:-0-0-0-0-0--1-1-1-1-1--3-3-3-3-3--3-2-1-0-1-2-3-: 
            
Submit corrections


        Ashes lessons Hard to play? Try these video lessons and learn fast Ashes lessons
        
↑ Back to top | Tablatures and chords for acoustic guitar and electric guitar, ukulele, drums are parodies/interpretations of the original songs. You may use it for private study, scholarship, research or language learning purposes only