» » »

Strung Out - 14 Days Tabs

Artists:  A B C D E F G H I J K L M N O P Q R S T U V W X Y Z # 

14 Days Tabs

(ver. 1) Click to play this song!
Strung Out
 Rating:
4/5 (4 votes)

 14 Days lessons Tabs too difficult? Try these video lessons and learn fast
 
                  I think ull find this is 100% correct i have tabbed many of there songs.

All strings are tuned down a whole step 
E=D; A=G; D=C; G=F; B=A; E=D 

Intro (X4) - Jake 
--------------12-------------13-------------15--------------13-- 
--12--11--12-----12--11--12------12--11--12-----12--11--12------ 

Rob 
-----------4-------------5-----------7------------5------------- 
--5--4--5-------5--4--5-----5--4--5-----5--4--5----------------- 

Jake (X2) 
-----------------------12---------------------------------13--- 
--12--11--12--11--12-------12--11----12--11--12--11--12-------- 

cont. 
----------------------------15------------------------------13------- 
12--11--12--11--12--11--12------12--11--12--11--12--11--12----12--11- 

Rob 
----------------4----------------------5---------------------7---------------------5------ 
--5--4--5--4--5---5--4--5--4--5--4---5---5--4--5--4--5--4--5---5--4--5--4--5--4--5---5--4- 

Verse (both, X4): My day begins with a sigh... 
--------------------5--5--5--5--5----------------------------------------------------------- 
--------------------4--4--4--4--4--------------9--9--9--9--9--5--5--5--5--5--7--7--7--7--7-- 
--5--5--5--5-5---2--2--2--2--2--5--5--5--5--5--9--9--9--9--9--5--5--5--5--5--7--7--7--7--7-- 
--5--5--5--5--5--2--2--2--2--2--5--5--5--5--5--7--7--7--7--7--3--3--3--3--3--5--5--5--5--5-- 
--3--3--3--3--3--0--0--0--0--0--3--3--3--3--3----------------------------------------------- 

Chorus (X4): 14 Days... I killed my self alone, etc. 
-------------------------------------------------- 
-------------------------------------------------- 
--9--9--9-----9--7--7--7---7---5--5--5--5--5--5--- 
--9--9-----9-----7--7-----7----5--5--5--5--5--5--- 
--7--7-----------5--5----------3--3--3--3--3--3--- 
-------------------------------------------------- 

Repeat verse, repeat chorus 

Guitar Garbage (Jake) 
--5--5----------7--7----------9--9------10-10---------5--5-----7--7-----3--3--3-3-
--3--3-x-x-x-x--5--5-x-x-x-x--7--7-x-x-x-8--8-x-x-x-x--3--3-x-x------x-x------1-1- 

X4 
----------------------------------------------- 
----------------------------------------------- 
----------------------------------------------- 
----------4----------5----------7----------5--- 
--5--4--5----5--4--5---5--4--5----5--4--5------ 
----------------------------------------------- 

Repeat chorus 

Ending riff (X4); Jake 
----------------------------------- 
----------------------------------- 
----------------------------------- 
--------------------------7--7--7-- 
--5--5--5--5--5--7--7--7--5--5--5-- 
--3--3--3--3--3--5--5--5----------- 

Rob (X2) 
-------7--5--4----4----------------------------7--5--4----4------------------------- 
---5------------7----5--7--5--4----4--7--4--5-----------7----5--7--5--4----4--7--4-- 
---------------------------------5--------------------------------------5----------- 
            
Submit corrections


        14 Days lessons Hard to play? Try these video lessons and learn fast 14 Days lessons
        
↑ Back to top | Tablatures and chords for acoustic guitar and electric guitar, ukulele, drums are parodies/interpretations of the original songs. You may use it for private study, scholarship, research or language learning purposes only