Home » S » Strokes »

Strokes - Automatic Stop Tabs

Artists:  A B C D E F G H I J K L M N O P Q R S T U V W X Y Z # 

Automatic Stop Tabs

(ver. 2) Click to play this song!
Strokes
Intro:

 Guitar 1
e|--9--9---9--9---11-11--11-11----9--9---9--9---11-11--11-11--|
B|-11-11--11-11---11-11--11-11---11-11--11-11---11-11--11-11--|
G|-11-11--11-11---11-11--11-11---10-10--10-10---10-10--10-10--|  x2
D|------------------------------------------------------------|
A|------------------------------------------------------------|
E|------------------------------------------------------------|



	**(While Guitar 1 is playing chords, Guitar 2 plays the same notes as the bass.)
Verse:
 (Part 1)
 Guitar 1
e|--9--9---9--9---9--9---9--9---11-11--11-11--11-11--11-11----9--9---9--9---9--9---9--9---9--9---9--9---9--9---9--9--
B|-11-11--11-11--11-11--11-11---11-11--11-11--11-11--11-11---11-11--11-11--11-11--11-11--11-11--11-11--11-11--11-11--
G|-11-11--11-11--11-11--11-11---11-11--11-11--11-11--11-11---10-10--10-10--10-10--10-10--10-10--10-10--10-10--10-10--  This is played x2.
D|-------------------------------------------------------------------------------------------------------------------  After, move on to 
A|-------------------------------------------------------------------------------------------------------------------  the next bar.
E|-------------------------------------------------------------------------------------------------------------------

 (Part 2)
e|--11-11--      e|--9--9--	 e|--11-11--	  e|--9--9--
B|--12-12--      B|-11-11--	 B|--12-12--	  B|--9--9--        
G|--13-13-- x8   G|-11-11--  x8  G|--13-13--  x8  G|-10-10--  x8   After this is the bridge. Guitar 1 plays the Verse(Part 1)
D|---------	 D|--------	 D|---------	  D|-11-11--
A|---------	 A|--------	 A|---------	  A|--------
E|---------	 E|--------	 E|---------	  E|--------




Bridge 1: 
 Guitar 2    **("t" indicates tremolo picking) **(The entire Bridge is palm muted.)
e|---------------------------------------------------------------------------------------------------------
B|---------------------------------------------------------------------------------------------------------
G|---------------------------------------------------------------------------------------------------------
D|---------------------10tttttttt--8tttttttt---------------------------------8tttttttt--10tttttttt---------
A|--9tttttttttttttttt-------------------------9tttttttt--8tttttttttttttttt--------------------------8tttt--
E|---------------------------------------------------------------------------------------------------------

e|--------------------------------------------------------------------------|
B|--------------------------------------------------------------------------|
G|--------------------------------------------------------------------------|
D|---------------------10tttttttt--8tttttttt--------------------------------|
A|--9tttttttttttttttt-------------------------9tttttttt--8tttttttttttttttt--|
E|--------------------------------------------------------------------------|




Chorus:
 
 Guitar 1
e|---9--9---9--9---9--9---9--9----9--9---9--9---9--9---9--9---11-11--11-11--11-11--11-11--11-11--11-11--11-11--11-11--
B|--11-11--11-11--11-11--11-11----9--9---9--9---9--9---9--9---11-11--11-11--11-11--11-11--11-11--11-11--11-11--11-11--
G|--11-11--11-11--11-11--11-11---10-10--10-10--10-10--10-10---11-11--11-11--11-11--11-11--11-11--11-11--11-11--11-11--
D|-------------------------------11-11--11-11--11-11--11-11-----------------------------------------------------------
A|--------------------------------------------------------------------------------------------------------------------
E|--------------------------------------------------------------------------------------------------------------------


e|--11-11--11-11--11-11--11-11--11-11--11-11--11-11--11-11---11-11--11-11--11-11--11-11--11-11--11-11--11-11--11-11--|
B|--13-13--13-13--13-13--13-13--13-13--13-13--13-13--13-13---12-12--12-12--12-12--12-12--12-12--12-12--12-12--12-12--|
G|--13-13--13-13--13-13--13-13--13-13--13-13--13-13--13-13---13-13--13-13--13-13--13-13--13-13--13-13--13-13--13-13--|  x2
D|-------------------------------------------------------------------------------------------------------------------|
A|-------------------------------------------------------------------------------------------------------------------|
E|-------------------------------------------------------------------------------------------------------------------|


 Guitar 2
e|--6--------6--------6-------4--------4--------4-------2--------2--------2/-------4--------4------------4--------4-------4--
B|------7--------7----------------6--------6----------------4--------4-----------------7--------7---6-7------7--------7------
G|----6---6----6---6----6-------6---6----6---6----6-------3---3----3---3----3/-------5---5----5---5--------5---5----5---5----
D|---------------------------------------------------------------------------------------------------------------------------
A|---------------------------------------------------------------------------------------------------------------------------
E|---------------------------------------------------------------------------------------------------------------------------


e|--4--------4--------4-----4--------4---------4----|
B|------7--------7--------------7--------7----------|
G|----4---4----4---4----4-----4---4----4---4-----4--|  x2
D|--------------------------------------------------|
A|--------------------------------------------------|
E|--------------------------------------------------|

After this, Guitar 1 plays the Intro x2.  From there, Guitar 1 plays  Verse(Part 1) while Guitar 2 plays Bridge 2.



Bridge 2:
 Guitar 2		**(The entire Bridge is palm muted.)
e|---------------------------------------------------------------------------------------------------------
B|---------------------------------------------------------------------------------------------------------
G|---------------------------------------------------------------------------------------------------------
D|---------------------10tttttttt--8tttttttt---------------------------------8tttttttt--10tttttttt---------
A|--9tttttttttttttttt-------------------------9tttttttt--8tttttttttttttttt--------------------------8tttt--
E|---------------------------------------------------------------------------------------------------------

e|------------------------------------------------------------------------------------------------|
B|------------------------------------------------------------------------------------------------|
G|------------------------------------------------------------------------------------------------|
D|---------------------10tttttttt--8tttttttt------------------------------------------------------|
A|--9tttttttttttttttt-------------------------9tttttttt--8tttttttttttttttt------------------------|
E|--------------------------------------------------------------------------9tttttttt--8tttttttt--|


That's all there is to the song.  Just figure out the order of everything and you should be good. 
            
Submit corrections

↑ Back to top | Tablatures and chords for acoustic guitar and electric guitar, ukulele, drums are parodies/interpretations of the original songs. You may use it for private study, scholarship, research or language learning purposes only