Home » S » Strokes »

Strokes - 12 51 Tabs

Artists:  A B C D E F G H I J K L M N O P Q R S T U V W X Y Z # 

12 51 Tabs

(ver. 2) Click to play this song!
Strokes
 Rating:
4/5 (4 votes)
                (Complete)
The Strokes
Room on Fire
12:51
~ArnoldLayne~

v     Vibrato
~     Hold Note
.PM.  Palm Mute

I play 12:51 Clean with my Pickups on Rhythm 

E|----------------------------------------------|   X2
B|-----9--------9-------------------------------|   
G|-------9-11-9---11-9---11-8-9-8-11-9-8--------|     
D|----------------------------------------------|     
A|----------------------------------------------|
E|----------------------------------------------|       

E|----------------------------------------------    
B|----12-9-----9----12--9-----9-----------------    
G|---------11--------------11-------------------     
D|----------------------------------------------      
A|---------------------------------------------- 
E|----------------------------------------------
					      
E|----------------------------------------------|   X2          
B|----12-9----9------9--------------------------|          
G|---------11------9---11-9---------------------|           
D|----------------------------------------------|        
A|----------------------------------------------|       
E|----------------------------------------------| 

E|----------------------------------------------  
B|-----9--------9-------------------------------   
G|-------9-11-9---11-9---11-8-9-8-11-9-8--------  
D|----------------------------------------------
A|----------------------------------------------
E|----------------------------------------------

E|----------------------------------------------|
B|----9--------12-10-9--------------------------|
G|-----9-11-9-------------11-8-9-8-11-9-8-------|
D|----------------------------------------------|
A|----------------------------------------------|
E|----------------------------------------------|
         
E|----------------------------------------------    
B|----12-9-----9----12--9-----9-----------------    
G|---------11--------------11-------------------     
D|----------------------------------------------      
A|----------------------------------------------       
E|----------------------------------------------   

E|----------------------------------------------|           
B|----12-9----9------9--------------------------|          
G|---------11------9---11-9---------------------|           
D|----------------------------------------------|        
A|----------------------------------------------|      
E|----------------------------------------------|         

E|----------------------------------------------|   X2
B|-------15----------17-15----------------------|   
G|----17----16-17----------17-16----------------|    
D|----------------------------------------------|     
A|----------------------------------------------| 
E|----------------------------------------------|  

  
E|----------------------------------------------|
B|----17----15-------------17----17-15----------|
G|-------14----17-16-14-17---16--------17-16----|
D|----------------------------------------------|
A|----------------------------------------------|
E|----------------------------------------------|

E|----------------------------------------------|
B|-------15----------17-15----------------------|   
G|----17----16-17----------17-16vvv~~-----------|    
D|----------------------------------------------|     
A|----------------------------------------------| 
E|----------------------------------------------|  

E|----------------------------------------------|   X2
B|-----9--------9-------------------------------|   
G|-------9-11-9---11-9---11-8-9-8-11-9-8--------|     
D|----------------------------------------------|     
A|----------------------------------------------|
E|----------------------------------------------|   

E|----------------------------------------------|   X2
B|----9--------12-10-9--------------------------|  
G|-----9-11-9-------------11-8-9-8-11-9-8-------|  
D|----------------------------------------------|    
A|----------------------------------------------|  
E|----------------------------------------------| 

E|----------------------------------------------    X2  
B|----12-9-----9----12--9-----9-----------------    
G|---------11--------------11-------------------     
D|----------------------------------------------      
A|----------------------------------------------       
E|---------------------------------------------- 

E|----------------------------------------------|          
B|----12-9----9------9--------------------------|         
G|---------11------9---11-9---------------------|          
D|----------------------------------------------|       
A|----------------------------------------------|      
E|----------------------------------------------|                

E|--5~~~~------------------------------5--------|    Sweep Pick the
B|--7~~~~------------------------------7--------|    last chord
G|--7~~~~------------------------------7--------|          
D|--7~~~~------------------------------7--------|       
A|--5~~~~------------------------------5--------|      
E|--5~~~~------------------------------5--------|                 
		             	.PM.

This is my second tab, I'm not sure if it's correct but it sounds completly right to me.
            
Submit corrections

↑ Back to top | Tablatures and chords for acoustic guitar and electric guitar, ukulele, drums are parodies/interpretations of the original songs. You may use it for private study, scholarship, research or language learning purposes only