Home » S » Stray Cats »

Stray Cats - Rock This Town Tabs

Artists:  A B C D E F G H I J K L M N O P Q R S T U V W X Y Z # 

Rock This Town Tabs

(ver. 2) Click to play this song!
Stray Cats
   Intro
    Fast Q=198(8=s8)
    D
   4/4
    Gtr I
    Q  E E Q  E E   Q  E E Q  E E   Q  E E Q  E E   Q  E E Q  E E
||----------------|---------------|---------------|-----------------||
||o-7--7-7-7--7-7-|-7--7-7-7--7-7-|-7--7-7-7--7-7-|-7--7-7-7--7-7--o||
||--7--7-7-7--7-7-|-7--7-7-7--7-7-|-7--7-7-7--7-7-|-7--7-7-7--7-7---||
||--7--7-7-7--7-7-|-7--7-7-7--7-7-|-7--7-7-7--7-7-|-7--7-7-7--7-7---||
||o-5--5-5-5--5-5-|-5--5-5-5--5-5-|-5--5-5-5--5-5-|-5--5-5-5--5-5--o||
||----------------|---------------|---------------|-----------------||


  PM------------------------------------------------------------------|
  E E E E E E E E   E E E E E E E E   E E E E E E E E   E E E E E E E E
|-----------------|-----------------|-----------------|------------------||
|-----------------|-----------------|-----------------|---------7--------||
|-----------------|-----------------|-----------------|---------7--------||
|-7-7-9-7-7-7-9-7-|-7-7-9-7-7-7-9-7-|-7-7-9-7-7-7-9-7-|-7-7-9-7-7-7-9-7--||
|-5-5-5-5-5-5-5-5-|-5-5-5-5-5-5-5-5-|-5-5-5-5-5-5-5-5-|-5-5-5-5-5-5-5-5--||
|-----------------|-----------------|-----------------|------------------||


 1st Verse
  D
  PM------------------------------------------------------------------|
  E E E E E E E E   E E E E E E E E   E E E E E E E E   E E E E E E E E
|-----------------|-----------------|-----------------|------------------|
|-----------------|-----------------|-----------------|------------------|
|-----------------|-----------------|-----------------|------------------|
|-7-7-9-7-7-7-9-7-|-7-7-9-7-7-7-9-7-|-7-7-9-7-7-7-9-7-|-7-7-9-7-7-7-9-7--|
|-5-5-5-5-5-5-5-5-|-5-5-5-5-5-5-5-5-|-5-5-5-5-5-5-5-5-|-5-5-5-5-5-5-5-5--|
|-----------------|-----------------|-----------------|------------------|


                                      A       A6     A    A6 A
  PM------------------------------|
  E E E E E E E E   E E E E E E E E   Q  Q.   Q  E   E Q  Q  E Q
|-----------------|-----------------|----5----5----|---5--5--------|
|-----------------|-----------------|----5----7--5-|---5--7--5-----|
|-----------------|-----------------|----6----6--5h|=6-6--6--6-----|
|-7-7-9-7-7-7-9-7-|-7-7-9-7-7-7-9-7-|--------------|---------------|
|-5-5-5-5-5-5-5-5-|-5-5-5-5-5-5-5-5-|--------------|---------------|
|-----------------|-----------------|-5------------|---------------|


  D            Db9 D9  DbD9        G           Eb7 E7 EbE7
  E E E Q.   E E   E E E Q.   Q    E Q  Q  E E E   Q  E Q.   E E
|--------------4s|=5-5-4-5-------|---3--3--3---6s|=7--6s7---------|
|---7---7------4s|=5-5-4-5-------|---3--3--3---4s|=5--4s5---------|
|---7---7------4s|=5-5-4-5-------|---4--4--4-x-6s|=7--6s7---------|
|---7---7------3s|=4-4-3-4-------|-------------5s|=6--5s6------x--|
|-5------------4s|=5-5-4-5-------|---------------|-------------x--|
|----------------|---------------|---------------|----------------|


  D               A              D
                                 PM-----------------------------|
  E E E Q  E Q    E Q  Q  E Q    Q  E E E E E E   E E E E E E E E
|---------------|---5-----5----|----------------|------------------|
|---7---7--x-x--|---5--7--5----|----------------|------------------|
|---7---7--x-x--|-5-6--6--6-6--|----------------|------------------|
|---7---7--x-x--|-6---------7--|----4-4-5-5-6-6-|-7-7-6-6-5-5-4-4--|
|-5-------------|--------------|----------------|------------------|
|---------------|--------------|-5--------------|------------------|


                                          2nd Verse
                                          D
    PM--------------------------------------------------------------------|
    E E E E E E E E   E E E E E E E E  3x E E E E E E E E   E E E E E E E E
||------------------|------------------||-----------------|-----------------|
||o-----------------|-----------------o||-----------------|-----------------|
||------------------|------------------||-----------------|-----------------|
||------4-4-5-5-6-6-|-7-7-6-6-5-5-4-4--||-7-7-9-7-7-7-9-7-|-7-7-9-7-7-7-9-7-|
||o-5-5-------------|-----------------o||-5-5-5-5-5-5-5-5-|-5-5-5-5-5-5-5-5-|
||------------------|------------------||-----------------|-----------------|


                                         PM----------|
  Q   E  E  Q   Q     Q   E  E  Q   Q    E E E E E E E E   E Q  E E Q  E
|------------------|-------------------|-----------------|-----------------|
|----10-12-10------|-10--10-12-10------|-----------------|-----------------|
|----11-12-11--11--|-11--11-12-11--11--|-----------------|---7--7-7----4s==|
|-0------------12--|---------------12--|-7-7-9-7-7-7-9---|----------x------|
|------------------|-------------------|-5-5-5-5-5-5-5-7S|=9---------------|
|------------------|-------------------|-----------------|-----------------|


  A                                  D            Db9 D9
  E Q  Q  Q  E   E  E  e  Q   Q  E   E E E E Q  E E   Q  E Q.   E E
|---5--5--5----|----9--9-12---9--x-|--------------4s|=5--4-5----------|
|---5--7--5----|---10-10-10--10--x-|---7---7-7----4s|=5--4-5----------|
|-6-6--6--6--6s|=9--9--9--9---9--x-|---7---7-7----4s|=5--4-5------3s==|
|--------------|-------------------|---7---7-7----3/|-4--3-4----------|
|--------------|-------------------|--------------4s|=5--4-5----------|
|--------------|-------------------|----------------|-----------------|


  G                E7                D                 A
  E E E Q  E E E   E E E E E E E E   E E E E E E E E   E Q  Q  E E E
|---3-3-3--3-----|---7-7-7-7-7-7-x-|-----------------|---5--5--5-5----|
|---3-3-5--3-x---|---5-5-5-5-5-5-x-|---7---7-7-7---4-|-5-5--7--7-5----|
|-4-4-4-4--4-x-4s|=7-7-7-7-7-7-7-x-|---7---7-7-7---5-|-6-6--6--6-6----|
|----------------|-----------------|---7---7-7-7-----|----------------|
|----------------|-----------------|-5---------------|----------------|
|----------------|-----------------|-----------------|----------------|


                                   Chorus
  D                                 D
                                    PM------------------------------|
  Q  Q  E E E E   E E E Q  E E E    E E E E E E E E   E E E E E E E E
|---------------|----------------||-----------------|------------------|
|----7--7-7-x-x-|-7-7-x-7--7-x-x-||-----------------|------------------|
|----7--7-7-x-x-|-7-7-x-7--7-x-x-||-----------------|------------------|
|----7--7-7-x-x-|-7-7-x-7--7-x-x-||-7-7-9-7-7-7-9-7-|-7-7-9-7-7-7-9-7--|
|---------------|----------------||-5-5-5-5-5-5-5-5-|-5-5-5-5-5-5-5-5--|
|---------------|----------------||-----------------|------------------|


  PM------------------------------------------------------------------|
  E E E E E E E E   E E E E E E E E   E E E E E E E E   E E E E E E E E
|-----------------|-----------------|-----------------|------------------|
|-----------------|-----------------|-----------------|------------------|
|-----------------|-----------------|-----------------|------------------|
|-7-7-9-7-7-7-9-7-|-7-7-9-7-7-7-9-7-|-7-7-9-7-7-7-9-7-|-7-7-9-7-7-7-9-7--|
|-5-5-5-5-5-5-5-5-|-5-5-5-5-5-5-5-5-|-5-5-5-5-5-5-5-5-|-5-5-5-5-5-5-5-5--|
|-----------------|-----------------|-----------------|------------------|


  A                                                D           Db9
  |-3-| |-3-| |-3-| |-3-|   |-3-| |-3-| |-3-|
  E E E E E E E E E E E E   E E E E E E E E E Q    E Q  E Q  E E
|-5-5-5-5-5-5-7-7-7-7-7-7-|-8-8-8-8-8-8-9-9-9-9--|-------------4/-|
|-5-5-5-5-5-5-6-6-6-6-6-6-|-7-7-7-7-7-7-8-8-8-8--|---7----7----4/-|
|-6-6-6-6-6-6-7-7-7-7-7-7-|-8-8-8-8-8-8-9-9-9-9--|---7----7----4/-|
|-------------------------|----------------------|---7----7----3/-|
|-------------------------|----------------------|-5-----------4/-|
|-------------------------|----------------------|----------------|


  D9 DbD9         G            E7                        D
                               |-3-| |-3-| |-3-| |-3-|
  Q  E Q.   E E   Q  Q  H      E E E E E E E E E E E E   Q  Q  Q  E E
|-5--4-5----x-x-|-3----------|-------------------------|------------4s===|
|-5--4-5----x-x-|-3----------|-5-5-5-5-5-5-5-5-5-5-5-5-|----7--7----4s===|
|-5--4-5----x-x-|-4----------|-7-7-7-7-7-7-7-7-7-7-7-7-|----7--7----5s===|
|-4--3-4--------|-5----------|-6-6-6-6-6-6-6-6-6-6-6-6-|----7--7---------|
|-5--4-5--------|------------|-7-7-7-7-7-7-7-7-7-7-7-7-|-----------------|
|---------------|------------|-------------------------|-----------------|


  A               D
  E E E Q  E Q    Q  Q  Q  E E   +E  Q  E E   Q   E
|-5-5-5-5--5-5--|--------------|------------/10--10-||
|-5-5-5-7--5-5--|----7--7----7-|-(7)-7--7-7-/10--10-||
|-6-6-6-6--6-6--|----7--7----7-|-(7)-7--7-7---------||
|---------------|----7--7----7-|-(7)-7--7-7---------||
|---------------|--------------|--------------------||
|---------------|--------------|--------------------||


 Guitar Solo
  D
   E  E  Q   E      +E   E  E
|-10-10-10--12b13==(12)r---12pb14r==|
|-10-10-10--12b14==(12)r------------|
|-----------------------------------|
|-----------------------------------|
|-----------------------------------|
|-----------------------------------|


                                    |-3--|
   +E    E  E  E  E  E  E  E   E E  E E  E  E E  E E
|-(12)r-12-10----------------|-----------------------|
|-------------12-10----------|-----------------------|
|-------------------12-10-11-|---9h10p9----10-9------|
|----------------------------|----------12------12-9-|
|----------------------------|-----------------------|
|----------------------------|-----------------------|


                           D
                                  |--3--|        |--3--|
   E E  E E  E  Q   S  S    e  E  E  E  E  E  E  E  E  E
|------------------------|-10-------------10---------------|
|--------------10--10h12-|----------10-12----------10-12---|
|---------9-11-----------|----10h11----------10h11---------|
|----9-12----------------|---------------------------------|
|-12---------------------|---------------------------------|
|------------------------|---------------------------------|


                               A
         |--3--|
   E  E  E  E  E  e  E  E  E    Q      E  E  E      E  E  E
|-10-------------10-13-12-10-|-12b13--12-10--------10-10-10-|
|----------10-12-10----------|--------------13pb15----------|
|----10h11-------------------|------------------------------|
|----------------------------|------------------------------|
|----------------------------|------------------------------|
|----------------------------|------------------------------|


                                             D
   E      E  E      E  E  Q        E          Q   Q   Q  E  E
|--------10--------10-10-13b13.5--13pb13.5-|-10---------------|
|-13pb15----13pb15-------------------------|-10--12--12----12-|
|------------------------------------------|-----10--10----10-|
|------------------------------------------|------------------|
|------------------------------------------|------------------|
|------------------------------------------|------------------|


                              G
   +E   Q   Q        E  E E   E E E Q  Q  E
|-------------------------2s|=3-2s3-3--3----|
|-(12)-12--12b12.5--12\---2s|=3-2s3-5--3----|
|-(10)-10--10-------10\---3s|=4-3s4-4--4--6s|
|---------------------------|---------------|
|---------------------------|---------------|
|---------------------------|---------------|


  E7              D
  E E E Q  Q  E   E E E E E    E E    E
|---0---0--0----|--------------7------7--|
|---0---0--0----|------------------------|
|-7-7-6-7--7----|-------7-9b10---9b10----|
|---------------|---7-9------------------|
|-------------7s|=9----------------------|
|---------------|------------------------|


  A                       D
                          PM------------------------------------------------|
  |---3----|
  E    +E  E E E E E Q    E E E E E E E E   E E E E E E E E   E E E E E E E E
|-----------------------|-----------------|-----------------|-----------------|
|-----------------------|-----------------|-----------------|-----------------|
|-9b10r(9)-7------------|-----------------|-----------------|-----------------|
|------------9-7---7----|-----4-4-5-5-6-6-|-7-7-6-6-5-5-3-4-|-----4-4-5-5-6-6-|
|----------------9---9--|-5-5-------------|-----------------|-5-5-------------|
|-----------------------|-----------------|-----------------|-----------------|


  PM------------------------------------------------------------------|
  E E E E E E E E   E E E E E E E E   E E E E E E E E   E E E E E E E E
|-----------------|-----------------|-----------------|------------------|
|-----------------|-----------------|-----------------|------------------|
|-----------------|-----------------|-----------------|------------------|
|-7-7-6-6-5-5-3-4-|-----4-4-5-5-6-6-|-7-7-6-6-5-5-4-4-|-----4-4-5-5-6-6--|
|-----------------|-5-5-------------|-----------------|-5-5--------------|
|-----------------|-----------------|-----------------|------------------|


                    3rd Verse
                     D
  PM-------------------------------------------------|
  E E E E E E E E    E E E E E E E E   E E E E E E E E   Q   E  E  Q   Q
|-----------------||-----------------|-----------------|-------------------|
|-----------------||-----------------|-----------------|----10-12-10-------|
|-----------------||-----------------|-----------------|----11-12-10--11---|
|-7-7-6-6-5-5-4-4-||-7-7-9-7-7-7-9-7-|-7-7-9-7-7-7-9-7-|-0------------12---|
|-----------------||-5-5-5-5-5-5-5-5-|-5-5-5-5-5-5-5-5-|-------------------|
|-----------------||-----------------|-----------------|-------------------|


                                                           A
                      PM----------------------------|
   Q   E  E  Q   Q    E E E E E E E E   E E E E E E E E    E q  Q      q  E
|-------------------|-----------------|------------------|---5---------5--7--|
|-10--10-12-10------|-----------------|------------------|---5--7b7.5--5-----|
|-11--11-12-11--11--|-----------------|------------------|-6-----------------|
|---------------12--|-7-7-9-7-7-7-9-7-|-7-7-9-7-7-7-9-9\-|-------------------|
|-------------------|-5-5-5-5-5-5-5-5-|-5-5-5-5-5-5-5----|-------------------|
|-------------------|-----------------|------------------|-------------------|


  A                D               D9
  +E  Q  Q  Q.      q  Q  E E Q    q  Q  E E Q    q  Q  H
|-(7)-5--5--5----|---------------|-5-------5-5--|-3----------|
|-----5--5--5----|--7-------7-7--|-5-------5-5--|-3----------|
|----------------|--7-------7-7--|-5-------5-5--|-4----------|
|----------------|--7-------7-7--|-4-------4-4--|------------|
|----------------|---------------|-5-------5-5--|------------|
|----------------|---------------|--------------|------------|


  E7                        D              A               D6add9
  |-3-| |-3-| |-3-| |-3-|
  E E E E E E E E E E E E   Q  q  q  E E   E E E Q  E q    Q   Q   Q  E E
|-7-7-7-7-7-7-7-7-7-7-7-7-|------------4s|=5-5---5--5-5--|----10--10----9s===|
|-5-5-5-5-5-5-5-5-5-5-5-5-|----7--7----4s|=5-5---7--5-5--|----10--10----9s===|
|-7-7-7-7-7-7-7-7-7-7-7-7-|----7--7----5s|=6-6---6--6-6--|-----9---9----8s===|
|-6-6-6-6-6-6-6-6-6-6-6-6-|----7--7------|---------------|-----9---9----8s===|
|-------------------------|--------------|---------------|-------------------|
|-------------------------|--------------|---------------|-------------------|


                     Chorus
                      D
                      PM------------------------------|
   E  E E  Q.   Q     E E E E E E E E   E E E E E E E E   E  E  E  E  Q   Q
|-10-10-9-10\---x--||-----------------|-----------------|---------------------|
|-10-10-9-10\---x--||-----------------|-----------------|---10-10-12-10-------|
|--9--9-8--9\---x--||-----------------|-----------------|---11-11-12-11--11---|
|--9--9-8--9\------||-7-7-9-7-7-7-9-7-|-7-7-9-7-7-7-9-7-|-0--------------12---|
|------------------||-5-5-5-5-5-5-5-5-|-5-5-5-5-5-5-5-5-|---------------------|
|------------------||-----------------|-----------------|---------------------|


                      PM---------------
   Q   E  E  Q   Q    E E E E E E E E
|-------------------|-----------------|
|-10--10-12-10------|-----------------|
|-11--11-12-11--11--|-----------------|
|---------------12--|-7-7-9-7-7-7-9-7-|
|-------------------|-5-5-5-5-5-5-5-5-|
|-------------------|-----------------|


                    A
 ---------------|
                    |-3-| |-3-| |-3-| |-3-|
  E E E E E E E E   E E E E E E E E E E E E
|-----------------|-5-5-5-5-5-5-7-7-7-7-7-7---|
|-----------------|-5-5-5-5-5-5-6-6-7-6-6-7---|
|-----------------|-6-6-6-6-6-6-7-7-7-7-7-7---|
|-7-7-9-7-7-7-9-7-|---------------------------|
|-5-5-5-5-5-5-5-5-|---------------------------|
|-----------------|---------------------------|


                         D            Db9 D9              G
  |-3-| |-3-| |-3-|
  E E E E E E E E E Q    E E E Q  E E E   Q  E Q.   E E   Q  Q  H
|-8-8-8-8-8-8-9-9-9-9--|--------------4s|=5--4-5----x-x-|-3----------|
|-7-7-7-7-7-7-8-8-8-8--|-7-7-7-7------4s|=5--4-5----x-x-|-3----------|
|-8-8-8-8-8-8-9-9-9-9--|-7-7-7-7------4/|-5--4-5----x-x-|-4----------|
|----------------------|-7-7-7-7------3s|=4--3-4----x-x-|-5----------|
|----------------------|--------------4s|=5--4-5----x-x-|------------|
|----------------------|----------------|---------------|------------|


  E7                        D              A
  |-3-| |-3-| |-3-| |-3-|
  E E E E E E E E E E E E   Q  Q  Q  E E   E Q  Q.   E E   E E E E Q  E E
|-------------------------|------------4S|=5-5--5----5-x-|------------------|
|-5-5-5-5-5-5-5-5-5-5-5-5-|----7--7----4S|=5-5--5----5-x-|---7---7-7----7---|
|-7-7-7-7-7-7-7-7-7-7-7-7-|----7--7----5S|=6-6--6----6-x-|---7---7-7----7---|
|-6-6-6-6-6-6-6-6-6-6-6-6-|----7--7------|---------------|---7---7-7----7---|
|-7-7-7-7-7-7-7-7-7-7-7-7-|--------------|---------------|------------------|
|-------------------------|--------------|---------------|------------------|


                    Guitar Solo 2
                     D
  E E E E E  E Q     E E E E E E E E   E E E E E E E E   E E  E E  E E  E E
|-----------------||-----------------|-----------------|---------------------|
|-7-7-7-7---/7-7--||-7-7-7-7-6-6-6-6-|-5-5-5-5-3-3-3-2s|=3-3-/3-3-/3-3-/3-3--|
|-7-7-7-7---------||-----------------|-----------------|---------------------|
|-7-7-7-7---/7-7--||-7-7-7-7-6-6-6-6-|-5-5-5-5-4-4-4-3s|=4-4-/4-4-/4-4-/4-4--|
|-----------------||-----------------|-----------------|---------------------|
|-----------------||-----------------|-----------------|---------------------|


   E E  E E E Q    E    E  E  E      E  E      E  S       +S    E
|-------------5--/10-|-10-10--------10--------10---------------10-|
|-/3-3-/3-3-3-5--/10-|-10-10--------10--------10---------------10-|
|--------------------|-------12pb14----12pb14----12pb14==(12)r----|
|-/4-4-/4-4-4--------|--------------------------------------------|
|--------------------|--------------------------------------------|
|--------------------|--------------------------------------------|


   |--3--|  |--3--|  |--3--|
   E  E  E  E  E  E  E  E  E  E  E
|-------------------------------12b13==|
|-------10-------10-------10----12b13==|
|-10h12----10h12----10h12----10--------|
|--------------------------------------|
|--------------------------------------|
|--------------------------------------|


  A
    |--3---|  |--3--|  |--3--|  |--3--|
   +E   E  E  E  E  E  E  E  E  E  E  E    E   Q        E E  E  Q
|-(12)-12-12-12-12-12-12-12-12-12-12-12-|-12r-12b12.5--10---10-12--|
|-(12)-12-12-12-12-12-12-12-12-12-12-12-|-12r---------------10-10--|
|---------------------------------------|--------------------------|
|---------------------------------------|--------------------------|
|---------------------------------------|--------------------------|
|---------------------------------------|--------------------------|


  D
   q   q   E  E  E  E        +E    Q   E      +E    E  E  E
|-10--10--10-10-10--------|-------10---------------10----10---|
|-10--10--10-10-10-12b13==|=(12)r-----12b13==(12)r----10-12---|
|-------------------------|-----------------------------------|
|-------------------------|-----------------------------------|
|-------------------------|-----------------------------------|
|-------------------------|-----------------------------------|


  G                  E9       Eb9
   E  E  E  E  E E E  E    Q   E  Q   E Q
|-10-10-10-10-10-x-x-12-|-12--11-12--12-x--|
|-12-10-10-12-12-x-x-12-|-12--11-12--12-x--|
|--------------------11-|-11--10-11--11-x--|
|--------------------12-|-12--11-12--12-x--|
|-----------------------|------------------|
|-----------------------|------------------|


  D
  E E E E E E E     E   E     Q  E    +E  E Q
|---------------------|-------7--7----(7)--------|
|-------------------7-|-------7--7----(7)--------|
|-----------7-9pb11---|-9pb11----9b10r(9)p7------|
|-------7-9-----------|---------------------9\---|
|-5-7s9---------------|--------------------------|
|---------------------|--------------------------|


    D
    PM---------------------------------------------------
    E E E E E E E E   E E E E E E E E   E E E E E E E E
||------------------|-----------------|-----------------|
||o-----------------|-----------------|-----------------|
||------------------|-----------------|-----------------|
||------4-4-5-5-6-6-|-7-7-6-6-5-5-3-4-|-----4-4-5-5-6-6-|
||o-5-5-------------|-----------------|-5-5-------------|
||------------------|-----------------|-----------------|


 1.                  2.
 -----------------------------------|
  E E E E E E E E     E E E E E E E E
|------------------||------------------||
|-----------------o||------------------||
|------------------||------------------||
|-7-7-6-6-5-5-3-4--||-7-7-6-6-5-5-3-3--||
|-----------------o||------------------||
|------------------||------------------||


 Out-Chorus
  D
  E E E E E E E E   E E E E E E E E   E E E E E E E E   E E E E E E E E
|-----------------|-----------------|-----------------|------------------|
|-----------------|-----------------|-----------------|------------------|
|-----------------|-----------------|-----------------|------------------|
|-7-7-9-7-7-7-9-7-|-7-7-9-7-7-7-9-7-|-7-7-9-7-7-7-9-7-|-7-7-9-7-7-7-9-7--|
|-5-5-5-5-5-5-5-5-|-5-5-5-5-5-5-5-5-|-5-5-5-5-5-5-5-5-|-5-5-5-5-5-5-5-5--|
|-----------------|-----------------|-----------------|------------------|


                                      A
  E E E E E E E E   E E E E E E E E   E q  Q  Q  E
|-----------------|-----------------|---5--5--5----|
|-----------------|-----------------|---5--7--5--8-|
|-----------------|-----------------|-6------------|
|-7-7-9-7-7-7-9-7-|-7-7-9-7-7-7-9-0-|--------------|
|-5-5-5-5-5-5-5-5-|-5-5-5-5-5-5-5---|--------------|
|-----------------|-----------------|--------------|


                    DDb9             D9               G
   E q   Q   e Q      q  q  q  E E   E E E Q  E E E   Q  Q  H
|----9--12---9----|--------------4s|=5-5-4-5--5-x-3-|-3----------|
|-10----10--10----|---7--7--7----4s|=5-5-4-5--5-x-3-|-3----------|
|-----------------|---7--7--7----4s|=5-5-4-5--5-x-4-|-4----------|
|-----------------|---7--7--7----3s|=4-4-3-4--4-x---|-5----------|
|-----------------|--------------4s|=5-5-4-5--5-x---|------------|
|-----------------|----------------|----------------|------------|


  E7                        D              A              D
                                                          PM------------|
  |-3-| |-3-| |-3-| |-3-|
  E E E E E E E E E E E E   Q  Q  Q  E E   E Q  Q  Q  E   E E E E E E E E
|-------------------------|------------4s|=5-5--5--5--x-|-------------------|
|-5-5-5-5-5-5-5-5-5-5-5-5-|----7--7----4s|=5-5--7--5--x-|-------------------|
|-7-7-7-7-7-7-7-7-7-7-7-7-|----7--7----5s|=6-6--6--6--x-|-------------------|
|-6-6-6-6-6-6-6-6-6-6-6-6-|----7--7------|--------------|-----4-4-5-5-6-6---|
|-7-7-7-7-7-7-7-7-7-7-7-7-|--------------|--------------|-5-5---------------|
|-------------------------|--------------|--------------|-------------------|


  PM------------|
  E E E E E E E E   Q  Q  Q  E E   E Q  Q  Q  E
|-----------------|------------4s|=5-5--5--5--x-|
|-----------------|-7--7--7----4s|=5-5--7--5--x-|
|-----------------|-7--7--7----5s|=6-6--6--6--x-|
|-7-7-6-6-5-5-4-4-|-7--7--7------|--------------|
|-----------------|--------------|--------------|
|-----------------|--------------|--------------|


                                                          A
  PM-----------------------------------|
  E E E E E E E E   E   E    E E E E E E   Q  Q  Q  E E   E Q  Q  Q   E
|-----------------|----------------------|------------4s|=5-5--5--5--13--|
|-----------------|----------------------|-7--7--7----4s|=5-5--7--5--12--|
|-----------------|----------------------|-7--7--7----5s|=6-6--6--6------|
|-----4-4-5-5-6-6-|-6b7-6pb7r6-6-5-5-4-4-|-7--7--7------|----------------|
|-5-5-------------|----------------------|--------------|----------------|
|-----------------|----------------------|--------------|----------------|


                                                 D6add9
   +E   E  E  E  E  E  S  S  E    E  E  E Q.   E  E    +W
|-(13)-12-10-------------------|-----------------10-|-(10)----*|
|-(12)-------12-10-------------|-----------------10-|-(10)----*|
|------------------12-10h11----|------------------9-|--(9)----*|
|---------------------------12-|-10---------------9-|--(9)----*|
|------------------------------|----12-10-9---------|---------*|
|------------------------------|--------------------|---------*|            
Submit corrections

↑ Back to top | Tablatures and chords for acoustic guitar and electric guitar, ukulele, drums are parodies/interpretations of the original songs. You may use it for private study, scholarship, research or language learning purposes only