» » »

Strawberry Alarm Clock - Pretty Song From Psych-Out Bass

Artists:  A B C D E F G H I J K L M N O P Q R S T U V W X Y Z # 

Pretty Song From Psych-Out Bass

(ver. 1) Click to play this song!
Strawberry Alarm Clock
 Rating:
3.7/5 (9 votes)

 Pretty Song From Psych-Out lessons Tabs too difficult? Try these video lessons and learn fast
 
                G|-----------------|-----------------|-----------------|-------------4---|
D|-6-----6---6-----|-6---6-6-----6-4-|-2-----2---2-----|-2---2-2---2---2-|
A|-------------6---|-----------6-----|-------------2-2-|-----------------|
E|-----------------|-----------------|-----------------|-----------------|
   1 & 2 & 3 & 4 &   1 & 2 & 3 & 4 &   1 & 2 & 3 & 4 &   1 & 2 & 3 & 4 &

G|-----------------|-----------------|-----------------|-----------------|
D|---------5---5-5-|---------5-------|-----------------|-----------------|
A|-3---3-3---------|-3---3-3---------|-5-5-5-5-5-5-5-5-|-7-7-5-5-4-4-2-2-|
E|-----------------|-------------3---|-----------------|-----------------|
   1 & 2 & 3 & 4 &   1 & 2 & 3 & 4 &   1 & 2 & 3 & 4 &   1 & 2 & 3 & 4 &

  "I can see you..."
G|-------------2-1-|-----------------|-----------------|-------------3---|
D|---------2-2-----|-5---5---0---5-5-|-0---0-0-0---4-7-|-5-----5---5---5-|
A|-0---0-4---------|-------2---------|-----------------|-----------------|
E|-----------------|-----------------|-----------------|-----------------|
   1 & 2 & 3 & 4 &   1 & 2 & 3 & 4 &   1 & 2 & 3 & 4 &   1 & 2 & 3 & 4 &

   "We can live..."
G|-------------2---|-----------------|-----------------|-------------------|
D|---------2-2---2-|-5-----5-----5-5-|-0-----0-0-0-4-7-|-----------3h5-3h5-|
A|-0---0-4---------|---------5-5-----|-----------------|-3-----3-3---------|
E|-----------------|-----------------|-----------------|-------------------|
   1 & 2 & 3 & 4 &   1 & 2 & 3 & 4 &   1 & 2 & 3 & 4 &   1 & 2 & 3 & 4 &

G|------------3h5---------|
D|---------------3h5------|
A|-3--------3-----------3-|
E|------------------------|
   1  &  2  &  3  &  4  &

   "And your face..."
G|-----------------|-----------------|---------7-5-----|-----------------|
D|-3---3-------3-2-|-0---0-0---0-4-7-|-5-----5-----8-7-|-5---5-5-----5-3-|
A|-------0-3-------|-----------------|-----------------|---------5-------|
E|-----------------|-----------------|-----------------|-----------------|
   1 & 2 & 3 & 4 &   1 & 2 & 3 & 4 &   1 & 2 & 3 & 4 &   1 & 2 & 3 & 4 &

   "Moon is out..."
G|-----------------|-----------------|-----------------|-------------------------|
D|-----------------|---------2-2-5-5-|-6-6---6-----6-6-|-7--7--7--7--------------|
A|-6---6-6---6-6-5-|-3---3-3---------|---------6-------|-------------5h7-5h7-5h7-|
E|-----------------|-----------------|-----------------|-------------------------|
   1 & 2 & 3 & 4 &   1 & 2 & 3 & 4 &   1 & 2 & 3 & 4 &   1  &  2  &  3  &  4  &

   "You are on the run..."
G|-------------2-1-|-----------------|-----------------|-----------------|
D|---------2-2-----|-5---5-5-0-5-4-2-|-0-----0-4---7---|-----------------|
A|-0-0-4-4---------|-----------------|---------------5-|-7-7-5-5-4-4-2-2-|
E|-----------------|-----------------|-----------------|-----------------|
   1 & 2 & 3 & 4 &   1 & 2 & 3 & 4 &   1 & 2 & 3 & 4 &   1 & 2 & 3 & 4 &

   "Silent world..."
G|------------------------|-----------------|-----------------|
D|-------------------7--7-|-5---5---0-5-4-2-|-----------4-7---|
A|-0--------4h5h7-7-------|-------2---------|-5---5-5-------5-|
E|------------------------|-----------------|-----------------|
   1  &  2  &  3  &  4  &   1 & 2 & 3 & 4 &   1 & 2 & 3 & 4 &

G|-------------------------|-------------5------------|
D|-------------3h5-3h5-3h5-|----------------3h5---3h5-|
A|-3--------3--------------|-3-----3--3---------------|
E|-------------------------|--------------------------|
   1  &  2  &  3  &  4  &    1  &  2  &  3  &  4  &


   "I am lost..."
G|-----------------|-----------------|---------7-5-----|-----------------|
D|-3---3-------3-2-|-0---0-4-7---0-7-|-5---x-5-----8-7-|-5---5-5-----5-3-|
A|-------0-3-------|-----------------|-----------------|---------5-------|
E|-----------------|-----------------|-----------------|-----------------|
   1 & 2 & 3 & 4 &   1 & 2 & 3 & 4 &   1 & 2 & 3 & 4 &   1 & 2 & 3 & 4 &

   "Just to raise..."
G|-----------------|-----------------|-----------------|-----------------|
D|-------5-8-------|---------2-2-5-5-|-6----6----------|-6-6-4-4---------|
A|-6---6-------6-5-|-3-----3---------|---------6---6-6-|---------7-7-6-6-|
E|-----------------|-----------------|-----------------|-----------------|
   1 & 2 & 3 & 4 &   1 & 2 & 3 & 4 &   1 & 2 & 3 & 4 &   1 & 2 & 3 & 4 &

  "Put your trust..."
G|-----------------|-----------------|-----------------|-----------------|
D|---------6-----6-|-4---4-----------|-----------------|---------------6-|
A|-4-----7-----4---|-------4-0---0-0-|-7---7-7---------|-9-9-9-9-9-9-9---|
E|-----------------|-----------------|---------7---7-7-|-----------------|
   1 & 2 & 3 & 4 &   1 & 2 & 3 & 4 &   1 & 2 & 3 & 4 &   1 & 2 & 3 & 4 &

G|-----------------|-----------------|-----------------|
D|---------6-----6-|-4---4-----------|-----------------|
A|-4-----7-----4---|-------4-0---0-0-|-7---7-7---------|
E|-----------------|-----------------|---------7---7-7-|
   1 & 2 & 3 & 4 &   1 & 2 & 3 & 4 &   1 & 2 & 3 & 4 &

  "Here..."
G|-------------|-------------|-------------|-------------|
D|-------------|---------5h7-|-------------|-------------|
A|-5---5---5---|-5---5-------|-5---5---5---|-5---5---5---|
E|-------------|-------------|-------------|-------------|
   1 & 2 & 3 &   1 & 2 & 3 &   1 & 2 & 3 &   1 & 2 & 3 &

  "Dance through the park..."   
G|-------------|-------------|-------------|-------------|
D|-2-----------|-------------|-------------|-------------|
A|-------------|-3-------3---|-5---5---5---|-------------|
E|-------------|-------------|-------------|-5---5-5-5---|
   1 & 2 & 3 &   1 & 2 & 3 &   1 & 2 & 3 &   1 & 2 & 3 &  

G|-------------|-------------|-------------|-------------|
D|-2-------2---|-------------|-------------|-------------|
A|-------------|-3-------3---|-5---5---5---|-0---0---2---|
E|-------------|-------------|-------------|-------------|
   1 & 2 & 3 &   1 & 2 & 3 &   1 & 2 & 3 &   1 & 2 & 3 &  

  "Waiting the artists..."
G|-------------|-------------|-------------|-------------|
D|-2-------2---|-------5p0---|-------------|-------------|
A|-------------|-3-----------|-5---5---5---|-0-------2---|
E|-------------|-------------|-------------|-------------|
   1 & 2 & 3 &   1 & 2 & 3 &   1 & 2 & 3 &   1 & 2 & 3 &  

G|-------------|-------------|-------------|-------------|
D|-2-------2---|-------------|-0---0-7p0---|-------------|
A|-------------|-3---3---3---|-------------|-0---0---0---|
E|-------------|-------------|-------------|-------------|
   1 & 2 & 3 &   1 & 2 & 3 &   1 & 2 & 3 &   1 & 2 & 3 & 


G|-------------|-------------|-------------|---------2---|
D|-3---3-3-3---|------3--2---|-0---0---0---|-0---4-------|
A|-------------|-3-----------|-------------|-------------|
E|-------------|-------------|-------------|-------------|
   1 & 2 & 3 &   1 & 2 & 3 &   1 & 2 & 3 &   1 & 2 & 3 & 

G|-------------|-------------|-------------|-------------|
D|-5---5---5-5-|-5---5-------|-5---5-5-5---|-0---5---3---|
A|-------------|---------3h5-|-------------|-------------|
E|-------------|-------------|-------------|-------------|
   1 & 2 & 3 &   1 & 2 & 3 &   1 & 2 & 3 &   1 & 2 & 3 & 

G|-------------|-------------|-------------|-------------|
D|-------------|-------------|-------------|---------5---|
A|-6---6-6-6---|-6---6---5---|-3-----3-3---|-3---3-------|
E|-------------|-------------|-------------|-------------|
   1 & 2 & 3 &   1 & 2 & 3 &   1 & 2 & 3 &   1 & 2 & 3 & 

G|-----------------|--------------------------|
D|-6-6-6-6-6-6-6-6-|-7--7--7--7--7--7---------|
A|-----------------|------------------5h7-5h7-|
E|-----------------|--------------------------|
   1 & 2 & 3 & 4 &   1  &  2  &  3  &  4  &

   "Look into the sky..."
G|-------------2-1-|-----------------|-----------------|-------------7---|
D|---------2-2-----|-5---5---0-5-4-2-|-0---0-4-7-7-0-7-|-5-----5---5---5-|
A|-0---0-4---------|-------2---------|-----------------|-----------------|
E|-----------------|-----------------|-----------------|-----------------|
   1 & 2 & 3 & 4 &   1 & 2 & 3 & 4 &   1 & 2 & 3 & 4 &   1 & 2 & 3 & 4 &

   "Purest yellow..."
G|----------------|-----------------|-----------------|-----------------|
D|-7--7-7-----7-6-|-5---5---0-5-4-2-|-0---0-0--0-4-7--|-------------3h5-|
A|--------7-7-----|-------2---------|-----------------|---3---3-3-------|
E|----------------|-----------------|-----------------|-----------------|
   1 & 2 & 3 & 4 &  1 & 2 & 3 & 4 &   1 & 2 & 3 & 4 &   1 & 2 & 3 & 4 &

G|-----------------|
D|---------5-----5-|
A|-3-----3-----3---|
E|-----------------|
   1 & 2 & 3 & 4 &

   "World awaits..."
G|----------------|-----------------|---------7-5-----|---------5h7-----|
D|-3--3-------3-2-|-0---4-0-7---0-7-|-5-----5-----8-7-|-5---5-5-----5---|
A|------0-3-------|-----------------|-----------------|-----------------|
E|----------------|-----------------|-----------------|-----------------|
   1 & 2 & 3 & 4 &  1 & 2 & 3 & 4 &   1 & 2 & 3 & 4 &   1 & 2 & 3 & 4 &

   "Tender kiss..."
G|-----------------|-----------------|-------------------------|-----------------|
D|-------5-8-------|---------2-2-5-5-|-6-----6--6--------------|-6---6-6---------|
A|-6---6-------6-5-|-3---3-3---------|-------------4h6-4h6-4h6-|---------6---6-6-|
E|-----------------|-----------------|-------------------------|-----------------|
   1 & 2 & 3 & 4 &   1 & 2 & 3 & 4 &   1  &  2  &  3  &  4  &    1 & 2 & 3 & 4 &

   "Start to cry..."
G|-----------------|-----------------|-----------------|-----------------|
D|-6---6-6---6-----|-6---6-6-6-------|-6---6-6-----6---|-----------------|
A|-------------6---|-------------4/6-|-----------6---9-|-7---------------|
E|-----------------|-----------------|-----------------|-----------------|
   1 & 2 & 3 & 4 &   1 & 2 & 3 & 4 &   1 & 2 & 3 & 4 &   1 & 2 & 3 & 4 &

            
Submit corrections


        Pretty Song From Psych-Out lessons Hard to play? Try these video lessons and learn fast Pretty Song From Psych-Out lessons
        
↑ Back to top | Tablatures and chords for acoustic guitar and electric guitar, ukulele, drums are parodies/interpretations of the original songs. You may use it for private study, scholarship, research or language learning purposes only