» » »

Strapping Young Lad - Almost Again Tabs

Artists:  A B C D E F G H I J K L M N O P Q R S T U V W X Y Z # 

Almost Again Tabs

(ver. 1) Click to play this song!
Strapping Young Lad
 Rating:
4/5 (4 votes)
                Strapping Young Lad
The New Black
09 - Almost Again


Notes: Learnt on a 7-string standard tuned guitar and tabbed it accordingly.
Timings and rhytm is for yourself to figure out.

Theres so few sequenses to this brilliant song, they are tabbed in the order they 
appear, but some repeat.


verse - sweep!

(sooooooo youre...
e|-------------------------------------------------------------------|
b|-------------------------------------------------------------------|
G|-------------------------------------------------------------------|
D|-----7-10-7--------------------------------------------------------|
A|----7------7-----x4------------------------------------------------|
E|---8--------8------------------------------------------------------|
B|-10----------10----------------------------------------------------|

(...leaving)
e|-------------------------------------------------------------------|
b|-------------------------------------------------------------------|
G|-------------------------------------------------------------------|
D|----4-5-4-----------5-7-5-4-5-4------------------------------------|
A|---5-----5---------------------7-5---------------------------------|
E|--5-------5----x3--------------------------------------------------|
B|-7---------7-------------------------------------------------------|

(almost again)
e|-------------------------------------------------------------------|
b|-------------------------------------------------------------------|
G|-------------------------------------------------------------------|
D|-----3--3-5--3^5^3-------------------------------------------------|
A|----5--------------------------------------------------------------|
E|---5----------------x4---------------------------------------------|
B|--6----------------------------------------------------------------|

(almost agai-Y-ain) :)
e|-------------------------------------------------------------------|
b|-------------------------------------------------------------------|
G|-------------------------------------------------------------------|
D|-----4--4-5--4^5^4-------------------------------------------------|
A|----5--------------------------------------------------------------|
E|---5---------------------------------------------------------------|
B|--7----------------------------------------------------------------|


(soooo at the speed of sound!) fast as hell chords
e|-------------------------------------------------------------------|
b|-------------------------------------------------------------------|
G|--------------9--7-------------------------------------------------|
D|--(5)--7--10--9--7-------------------------------------------------|
A|--(5)--7--10--7--5-------------------------------------------------|
E|--(3)--5--8--------------------------------------------------------|
B|-------------------------------------------------------------------|

(soooo at the speed of sound) 2nd time
e|-------------------------------------------------------------------|
b|-------------------------------------------------------------------|
G|--5---7---9--7-----5---7--9----7-----------------------------------|
D|--5---7---9--7-----5---7--9----8-----------------------------------|
A|--3---5---7--5-----3---5--7----10----------------------------------|
E|-------------------------------------------------------------------|
B|-------------------------------------------------------------------|


ending, stop the the last chord in each spam
e|-------------------------------------------------------------------|
b|-------------------------------------------------------------------|
G|--5---7---9--7-----------------------------------------------------|
D|--5---7---9--7-----------------------------------------------------|
A|--3---5---7--5-----------------------------------------------------|
E|-------------------------------------------------------------------|
B|-------------------------------------------------------------------|
            
Submit corrections

↑ Back to top | Tablatures and chords for acoustic guitar and electric guitar, ukulele, drums are parodies/interpretations of the original songs. You may use it for private study, scholarship, research or language learning purposes only