Home » S » Strange Fruit »

Strange Fruit - Dangerous Things Tabs

Artists:  A B C D E F G H I J K L M N O P Q R S T U V W X Y Z # 

Dangerous Things Tabs

(ver. 1) Click to play this song!
Strange Fruit
Strange Fruit-Dangerous Things

(2)=Ghost Note
Intro Riff:
  B  	  B7         E/B
E----------------------4---4---4--4----------------  | |
B-4--4---4--4---4---4--5---5---5--5----------------  | |
G-4--4---4--2---4---4--4---4---4--4---------------- o| |
D-4--4---4--4---4---4--2---2---2--2---------------- o| |
A-2--2---2--2---2---2--2---2---2--2------2-5-2-----  | |
E------------------------------------2-5-------5(2)  | |

Verse Riff:
  B5        A5         E5         F5
E--------------------------------------------------
B-4--4---4--2---2---2------------------------------
G-4--4---4--2---2---2--1---1---1--3----------------
D-4--4---4--2---2---2--2---2---2--4----------------
A-2--2---2--0---0---0--2---2---2--4------2-5-2-----
E----------------------0---0---0--2--2-5-------5(2)

E------------------------------------------------  | |
B-4--4---4--2---2---2----------------------------  | |
G-4--4---4--2---2---2--1---1---1--3-3-3-3-3-3-3-3 o| |
D-4--4---4--2---2---2--2---2---2--4-4-4-4-4-4-4-4 o| |
A-2--2---2--0---0---0--2---2---2--4-4-4-4-4-4-4-4  | |
E----------------------0---0---0--2-2-2-2-2-2-2-2  | |

Chorus Riff:
  B5 A5 E5   B5 A5 E5   B5 A5 E5   B5 A5 E5
E------------------------------------------------
B-4--2--9----4--2--9----4--2--9----4--2--9-------
G-4--2--9----4--2--9----4--2--9----4--2--9--HOLD-
D-4--2--9----4--2--9----4--2--9----4--2--9-------
A-2--0--7----2--0--7----2--0--7----2--0--7-------
E------------------------------------------------
Hit chords on “All” “dangerous” and “things” e.g:
 B       A            E/B
“All you dangerous things, the writing’s on the wall”

Bridge Riff:
                 C#5
E------------------------------------
B------------------------------------
G-SILENCE 4 BARS-6--6—SILENCE 3 BARS-
D----------------6--6----------------
A----------------4--4----------------
E------------------------------------

E--------------------------------------
B-9p6---9p6---9p6--7p5---7p5---7p5--7~~
G-----6-----6----------4-----4---------
D--------------------------------------
A--------------------------------------
E--------------------------------------

E--------------------------------------------------------
B-9p6---9p6---9p6--7p5---7p5---7p5--7~~HOLD AND FEEDBACK-
G-----6-----6----------4-----4---------------------------
D--------------------------------------------------------
A--------------------------------------------------------
E--------------------------------------------------------

Solo:
E-----------------------------------------------------
B-5h7-7~--7p5h7/10---7h10p7\5/7--5h7/10---7h10p7\5/7~-
G-----------------------------------------------------
D-----------------------------------------------------
A-----------------------------------------------------
E-----------------------------------------------------

E-------------------------------------------
B-5h7p5h7p5--7---5h7/10---7h10p7\5/7-7-7-7~-
G-------------------------------------------
D-------------------------------------------
A-------------------------------------------
E-------------------------------------------

E----7-7----7-10-7---------------------------------------
B/10-----10--------7h10p7h10p7--7-7---------------7------
G------------------------------9-9-9b10p7-7-9-9-9---9----
D----------------------------------------9------------9~~
A--------------------------------------------------------
E--------------------------------------------------------

E------12-------12--------------------
B-15b17---15b17----15b17~~--12h14p12~-
G-------------------------------------
D-------------------------------------
A-------------------------------------
E-------------------------------------

Outro:
Chorus Riff then:
E-----------------------------------------------------
B-------------12b14---12b14r12p10---------------------
G-------11-13--------------------11-9-11-9-11-9-11b12-
D-11-13-----------------------------------------------
A-----------------------------------------------------
E-----------------------------------------------------

E------------------------------------------------
B------------------------------------------------
G-11b12-11b12-11b12-11b12r11p9--9--11b12r11p9--9-
D-----------------------------11-------------11--
A------------------------------------------------
E------------------------------------------------

E----12b14-12p10h12---------12-----------
B-14----------------12—12b14---11p9-11p9-
G----------------------------------------
D----------------------------------------
A----------------------------------------
E----------------------------------------

E------------------------------------------------
B-12b14r12-10-12-9--x-4-then---------------------
G------------------------------------------------
D------------------------------------------------
A---------------------------------2-5-2---2------
E-----------------------------2-5-------5--------

Format:
Intro Riff
Verse Riff
Chorus Riff
Verse Riff
Chorus Riff
Bridge Riff
Solo
Outro

Lyrics:
Watch were you’re turnin’,
It might be today,
You lose your head,
Then just throw it away,
You waltz out your door,
The bell starts to ring,
I cannot be sure,
If it’s really him,

All you dangerous things,
The writing’s on the wall,
All you dangerous things,
And now there’s no control,
All you dangerous things,
Coz I can hear you call,
All you dangerous things,

The eye of a stone,
Is looking at me,
This feeling is born,
In my tapestry,
Just give me a chance,
And don’t walk away,
It’s all in my head,
What I heard you say,

All you dangerous things,
The writing’s on the wall,
All you dangerous things,
And now there’s no control,
All you dangerous things,
And I can hear you call,
All you dangerous things,

I don’t need it now,
I don’t need no fix,
I hate society,
Playing the same old tricks,
Coz life’s a crown of thorns,
So give me what I need,
You’re not down, down,
Bring me down,
Don’t bring me down,

All you dangerous things,
The writing’s on your wall,
All you dangerous things,
And now there’s no control,
All you dangerous things,
Yes I can hear you call,
All you dangerous things,

All you dangerous things,
All you dangerous things,

All you dangerous things,
The writing’s on your wall,
All you dangerous things,
And now there’s no control,
All you dangerous things,
But I can hear you call,
All you dangerous things.
            
Submit corrections

↑ Back to top | Tablatures and chords for acoustic guitar and electric guitar, ukulele, drums are parodies/interpretations of the original songs. You may use it for private study, scholarship, research or language learning purposes only