» » »

Story Of The Year - Wake Up Tabs

Artists:  A B C D E F G H I J K L M N O P Q R S T U V W X Y Z # 

Wake Up Tabs

(ver. 2) Click to play this song!
Story Of The Year
 Rating:
4/5 (4 votes)

 Wake Up lessons Tabs too difficult? Try these video lessons and learn fast
 
                Intro part one:

// Guitar One

    -- Main Riff --
D#||---------0-------|-----------0-------|
A#||-------6---6-----|-------6-----6-----|
F#||-----7-------5---|-----7---------5---|
C#||-0-------------0-|-(0)---------------|
G#||-----------------|-------------------|
C#||-----------------|-------------------|

// Guitar two hits a D chord and uses a tremolo effect.


Intro part two:

// Guitar One plays the main riff

// Guitar Two
D#||-------------------------------------------------|
A#||-------------------------------------------------|
F#||---------------3--3--3---------3--3--3--5--5--5--|
C#||--0----0---0-0-3--3--3--0------3--3--3--5--5--5--|
G#||--0----0---0-0-1--1--1--0------1--1--1--3--3--3--|
C#||--0----0---0-0----------0------------------------|


Verse:

 // Guitar One plays the main riff palm muted

 // Guitar Two comes in the middle of the verse with palmutes of:

      .  .  .  .  .  .  .  .     .  .  .  .  .  .  .  .
D#||--------------------------|--------------------------|
A#||--------------------------|--------------------------|
F#||--5--5--5--5--5--5--5--5--|--------------------------|
C#||--5--5--5--5--5--5--5--5--|--8--8--8--8--8--8--8--8--|
G#||--3--3--3--3--3--3--3--3--|--8--8--8--8--8--8--8--8--|
C#||--------------------------|--8--8--8--8--8--8--8--8--|

       .   .   .   .   .   .   .   .      .   .   .   .   .   .   .   .
D#||----------------------------------|----------------------------------||
A#||----------------------------------|----------------------------------||
F#||--10--10--10--10--10--10--10--10--|----------------------------------||
C#||--10--10--10--10--10--10--10--10--|--10--10--10--10--10--10--10--10--||
G#||---8---8---8---8---8---8---8---8--|--10--10--10--10--10--10--10--10--||
C#||----------------------------------|--10--10--10--10--10--10--10--10--||


Prechorus:
 // Guitar One

                      * I can't hear the octaves.
D#||--------------|-------||
A#||--15s--15s----|-------||
F#||--------------|-------||
C#||--------------|-------||
G#||--------------|-------||
C#||--------------|-------||


 // Guitar Two
D#||-----------------------|-----------------------||
A#||-----------------------|-----------------------||
F#||--7--7--7--------------|--7--7--7--------------||
C#||--7--7--7--------------|--7--7--7--------------||
G#||--5--5--5--------------|--5--5--5--------------||
C#||-----------------------|-----------------------||

    .  .  .  .  .  .  .  .      .   .  .  .  .  .  .  .  .  .
||--------------------------|----------------------------------||
||--------------------------|----------------------------------||
||--------------------------|----------------------------------||
||--8--8--8--8--8--8--8--8--|--10--10--10--10--10--10--10--10--||
||--8--8--8--8--8--8--8--8--|--10--10--10--10--10--10--10--10--||
||--8--8--8--8--8--8--8--8--|--10--10--10--10--10--10--10--10--||

Chorus:

D#||----------------------------|----------------------------------||
A#||----------------------------|----------------------------------||
F#||--7--7--7-----------10--10--|--10--------------12--12----------||
C#||--7--7--7--8--8--8----------|------10--10--10----------10--10--||
G#||--5--5--5--8--8--8---8---8--|---8--10--10--10--10--10--10--10--||
C#||-----------8--8--8----------|------10--10--10----------10--10--||

D#||----------------------------|----------------------------------||
A#||----------------------------|----------------------------------||
F#||--7--7--7-----------10--10--|--10--10--10--10--12--12--12--12--||
C#||--7--7--7--8--8--8----------|----------------------------------||
G#||--5--5--5--8--8--8---8---8--|---8---8---8---8--10--10--10--10--||
C#||-----------8--8--8----------|----------------------------------||

Verse two:

 // Guitar One comes in the middle of the verse with some octaves that I can't make out. 
think, however, that he follows the rhythm progression.

 // Guitar Two
      .  .  .  .  .  .  .  .     .  .  .  .  .  .  .  .
D#||--------------------------|--------------------------|
A#||--------------------------|--------------------------|
F#||--5--5--5--5--5--5--5--5--|--------------------------|
C#||--5--5--5--5--5--5--5--5--|--8--8--8--8--8--8--8--8--|
G#||--3--3--3--3--3--3--3--3--|--8--8--8--8--8--8--8--8--|
C#||--------------------------|--8--8--8--8--8--8--8--8--|

       .   .   .   .   .   .   .   .      .   .   .   .   .   .   .   .
D#||----------------------------------|----------------------------------||
A#||----------------------------------|----------------------------------||
F#||--10--10--10--10--10--10--10--10--|----------------------------------||
C#||--10--10--10--10--10--10--10--10--|--10--10--10--10--10--10--10--10--||
G#||---8---8---8---8---8---8---8---8--|--10--10--10--10--10--10--10--10--||
C#||----------------------------------|--10--10--10--10--10--10--10--10--||

Bridge:
  // Guitar One - I can't make out that lead :-/ Sorry

  // Guitar Two plays chorus

Prechorus 2:

      .  .  .  .  .  .  .  .
D#||--------------------------||
A#||--------------------------||
F#||--------------------------||
C#||--8--8--8--8--8--8--8--8--||
G#||--8--8--8--8--8--8--8--8--||
C#||--8--8--8--8--8--8--8--8--||

D#||----------------------------------||
A#||----------------------------------||
F#||----------------------------------||
C#||--10--10--10--10--10--10--10--10--||
G#||--10--10--10--10--10--10--10--10--||
C#||--10--10--10--10--10--10--10--10--||

// End on a C chord.

Song Order:
Intro Part One
Intro Part Two
Verse
Prechorus
Chorus
Main Riff Interlude
Verse
Prechorus
Chorus
Prechorus
Bridge
Prechorus 2
Chorus
Chorus
Intro Part Two
            
Submit corrections


        Wake Up lessons Hard to play? Try these video lessons and learn fast Wake Up lessons
        
↑ Back to top | Tablatures and chords for acoustic guitar and electric guitar, ukulele, drums are parodies/interpretations of the original songs. You may use it for private study, scholarship, research or language learning purposes only