» » »

Story Of The Year - Until The Day I Die [Demo Bass

Artists:  A B C D E F G H I J K L M N O P Q R S T U V W X Y Z # 

Until The Day I Die [Demo Bass

(ver. 1) Click to play this song!
Story Of The Year
 Rating:
4/5 (4 votes)

 Until The Day I Die [Demo lessons Tabs too difficult? Try these video lessons and learn fast
 
                (Sion)
Music: Until The Day i Die [Demo Version]

/ - Slide Down     \ - Slide Up

Intro: 2x	
G|-----------------------------|
D|-----------------------------|
A|----555-555-2234-------------|
E|-9\--------------333-333-33/5|

Verse: 4x
G|------------------------------------|
D|------------------------------------|
A|-22222222----------55555555---------| 
E|----------33333333----------55555555|

Chorus: 3x
G|--------------------|
D|--------------------|
A|--------------------|
E|-333-555-7777777777-| 

4th Time Chorus:
G|--------------------|
D|--------------------|
A|--------------------|
E|-333-555-7---REST---|

Verse: 4x
G|------------------------------------|
D|------------------------------------|
A|-22222222----------55555555---------| 
E|----------33333333----------55555555|

Chorus: 3x
G|--------------------|
D|--------------------|
A|--------------------|
E|-333-555-7777777777-| 

4th Time Chorus:
G|--------------------|
D|--------------------|
A|--------------------|
E|-333-555------------|

Bridge: 5x
G|----------------|
D|----------------|
A|----------------|
E|-77-55-333333333|

Interlude:
G|-----------------------------------------------|
D|-------------------------77779999--------------|
A|---------------------------------79------------|
E|-7\-3/-7\-3-5-7\-3/-7\-3------------7-5-3-7-5-3|

Outro: 4x	
G|--------------------------|
D|--------------------------|
A|-555-555-2234-------------|
E|--------------333-333-33\5|

End:
G|----------|
D|----------|
A|----------|
E|-77-55-33-|

Brazil rlz.
            
Submit corrections


        Until The Day I Die [Demo lessons Hard to play? Try these video lessons and learn fast Until The Day I Die [Demo lessons
        
↑ Back to top | Tablatures and chords for acoustic guitar and electric guitar, ukulele, drums are parodies/interpretations of the original songs. You may use it for private study, scholarship, research or language learning purposes only