» » »

Story Of The Year - Sidewalks Ukulele

Artists:  A B C D E F G H I J K L M N O P Q R S T U V W X Y Z # 

Sidewalks Ukulele

(ver. 1) Click to play this song!
Story Of The Year
 Rating:
4/5 (4 votes)

 Sidewalks lessons Tabs too difficult? Try these video lessons and learn fast
 
                Story Of The Year - Sidewalks(acoustic) Guitar Tabs 

Guitar 1 -Phil 
----------------------- 
Half Step Down 
 
Intro 
eb|--------------0-----------| 
Bb|----------0-----0---0-----| 
Gb|------8-----8-----8-----8-| 
Db|----6---6-------------6---|x4(on forth let high 0 note ring) 
Ab|--4-----------------------| 
Eb|--------------------------| 
 
Verse 
eb|-0000000000-000000000-00000000000000000000-| 
Bb|-0000000000-000000000-00000000000000000000-| 
Gb|-2222222222-444444444-66666666666666666666-| 
Db|-2222222222-444444444-66666666666666666666-|x4 
Ab|-0000000000-222222222-44444444444444444444-| 
Eb|-0000000000-xxxxxxxxx-xxxxxxxxxxxxxxxxxxxx-| 
 
Chorus 
eb|-0000000000-0000000000-0000000000-0000000000-| 
Bb|-0000000000-0000000000-0000000000-0000000000-| 
Gb|-1111111111-2222222222-1111111111-6666666666-| 
Db|-2222222222-2222222222-2222222222-6666666666-|x2 
Ab|-2222222222-0000000000-2222222222-4444444444-| 
Eb|-0000000000-0000000000-0000000000-xxxxxxxxxx-| 
 
Pre-Chorus 
eb|-000000000000x-| 
Bb|-000000000000x-| 
Gb|-222222222222x-| 
Db|-222222222222x-| 
Ab|-000000000000x-| 
Eb|-000000000000x-| 

Intro 
eb|--------------0-----------| 
Bb|----------0-----0---0-----| 
Gb|------8-----8-----8-----8-| 
Db|----6---6-------------6---|x2 
Ab|--4-----------------------| 
Eb|--------------------------| 
 
Verse 
eb|-0000000000-0000000000-00000000000000000000-| 
Bb|-0000000000-0000000000-00000000000000000000-| 
Gb|-2222222222-4444444444-66666666666666666666-| 
Db|-2222222222-4444444444-66666666666666666666-|x4 
Ab|-0000000000-2222222222-44444444444444444444-| 
Eb|-0000000000-xxxxxxxxxx-xxxxxxxxxxxxxxxxxxxx-| 
 
Chorus 
eb|-0000000000-0000000000-0000000000-0000000000-| 
Bb|-0000000000-0000000000-0000000000-0000000000-| 
Gb|-1111111111-2222222222-1111111111-6666666666-| 
Db|-2222222222-2222222222-2222222222-6666666666-|x2 
Ab|-2222222222-0000000000-2222222222-4444444444-| 
Eb|-0000000000-0000000000-0000000000-xxxxxxxxxx-| 
 
Pre-Chorus 
eb|-000000000000-| 
Bb|-000000000000-| 
Gb|-222222222222-| 
Db|-222222222222-| 
Ab|-000000000000-| 
Eb|-000000000000-| 
 
Bridge 
eb|-0000000000-0000000000-0000000000-0000000000-| 
Bb|-0000000000-0000000000-0000000000-0000000000-| 
Gb|-6666666666-8888888888-2222222222-4444444444-| 
Db|-6666666666-8888888888-2222222222-4444444444-|x2 
Ab|-4444444444-6666666666-0000000000-2222222222-| 
Eb|-xxxxxxxxxx-xxxxxxxxxx-0000000000-xxxxxxxxxx-| 
 
eb|-0000000000-0000000000-0000000000-0000000000-| 
Bb|-0000000000-0000000000-0000000000-0000000000-| 
Gb|-6666666666-8888888888-2222222222-4444444444-| 
Db|-6666666666-8888888888-2222222222-4444444444-|x4 
Ab|-4444444444-6666666666-0000000000-2222222222-| 
Eb|-xxxxxxxxxx-xxxxxxxxxx-0000000000-xxxxxxxxxx-| 
 
eb|-0~0000000000-000000000000000x-| 
Bb|-0~0000000000-000000000000000x-| 
Gb|-1~6666666666-444444444444444x-| 
Db|-2~6666666666-444444444444444x-| 
Ab|-2~4444444444-222222222222222x-| 
Eb|-0~xxxxxxxxxx-xxxxxxxxxxxxxxxx-| 

Chorus 
eb|-0000000000-0000000000-0000000000-0000000000-| 
Bb|-0000000000-0000000000-0000000000-0000000000-| 
Gb|-1111111111-2222222222-1111111111-6666666666-| 
Db|-2222222222-2222222222-2222222222-6666666666-|x3 
Ab|-2222222222-0000000000-2222222222-4444444444-| 
Eb|-0000000000-0000000000-0000000000-xxxxxxxxxx-| 
 
Outro 

eb|-0000000000-0000000000-000000000-000000000000x-| 
Bb|-0000000000-0000000000-000000000-000000000000x-| 
Gb|-1111111111-2222222222-111111111-222222222222x-| 
Db|-2222222222-2222222222-222222222-222222222222x-| 
Ab|-2222222222-0000000000-222222222-000000000000x-| 
Eb|-0000000000-0000000000-000000000-000000000000x-| 
 

eb|--------------0-----------| 
Bb|----------0-----0---0-----| 
Gb|------8-----8-----8-----8-| 
Db|----6---6-------------6---|x4
Ab|--4-----------------------| 
Eb|--------------------------| 

Guitar 2 -Ryan 
---------------------- 
 
Verse 
eb|-0~0~0~-| 
Bb|-0~0~0~-| 
Gb|-2~4~6~-| 
Db|-2~4~6~-| 
Ab|-0~2~4~-| 
Eb|-0~0~0~-| 
 
Verse 1 cont. 
eb|-0-0--0-0--0-0--00000000000000000000-| 
Bb|-0--0-0--0-0--0-00000000000000000000-| 
Gb|-2~---4~---6~---66666666666666666666-| 
Db|-2~---4~---6~---66666666666666666666-| 
Ab|-0~---2~---4~---44444444444444444444-| 
Eb|-0~---0~---0~---00000000000000000000-| 
 
verse 1 cont. 
eb|-0000000000-0000000000-00000000000000000000-| 
Bb|-0000000000-0000000000-00000000000000000000-| 
Gb|-2222222222-4444444444-66666666666666666666-| 
Db|-2222222222-4444444444-66666666666666666666-|x2 
Ab|-0000000000-2222222222-44444444444444444444-| 
Eb|-0000000000-0000000000-00000000000000000000-| 
 

Chorus: 
eb|-0000000000-0000000000-0000000000-0000000000-| 
Bb|-0000000000-0000000000-0000000000-0000000000-| 
Gb|-1111111111-2222222222-1111111111-6666666666-| 
Db|-2222222222-2222222222-2222222222-6666666666-|x2 
Ab|-2222222222-0000000000-2222222222-4444444444-| 
Eb|-0000000000-0000000000-0000000000-xxxxxxxxxx-| 
 
Pre-Chorus(guitar 1) 
INtro(Guitar 1) 
 
Verse 
eb|-0000000000-0000000000-00000000000000000000-| 
Bb|-0000000000-0000000000-00000000000000000000-| 
Gb|-2222222222-4444444444-66666666666666666666-| 
Db|-2222222222-4444444444-66666666666666666666-|x4 
Ab|-0000000000-2222222222-44444444444444444444-| 
Eb|-0000000000-xxxxxxxxxx-xxxxxxxxxxxxxxxxxxxx-| 
 
eb|-0000000000-0000000000-0000000000-0000000000-| 
Bb|-0000000000-0000000000-0000000000-0000000000-| 
Gb|-1111111111-2222222222-1111111111-6666666666-| 
Db|-2222222222-2222222222-2222222222-6666666666-|x2 
Ab|-2222222222-0000000000-2222222222-4444444444-| 
Eb|-0000000000-0000000000-0000000000-xxxxxxxxxx-| 

 Bridge: 
eb|-0000000000-0000000000-0000000000-0000000000-| 
Bb|-0000000000-0000000000-0000000000-0000000000-| 
Gb|-6666666666-8888888888-2222222222-4444444444-| 
Db|-6666666666-8888888888-2222222222-4444444444-|x2 
Ab|-4444444444-6666666666-0000000000-2222222222-| 
Eb|-xxxxxxxxxx-xxxxxxxxxx-0000000000-xxxxxxxxxx-| 
 
Solo 
eb|--------------------------------------------------------------------| 
Bb|-55-4444-55-4444-5/99999-5/99999-121212121212-12/1414-14/1616161616-| 
Gb|--------------------------------------------------------------------| 
Db|--------------------------------------------------------------------| 
Ab|--------------------------------------------------------------------| 
Eb|--------------------------------------------------------------------| 
Pm .. .... .. .... ....... ....... 

eb|----------------------------------------------------| 
Bb|-5-4-0--5-4-0--5-4-0--5-4-0--5/7-4/9-4-4/121212-12b-| 
Gb|----------------------------------------------------| 
Db|----------------------------------------------------| 
Ab|----------------------------------------------------| 
Eb|----------------------------------------------------| 
 
eb|---------------------------------------------| 
Bb|---------------------------------------------| 
Gb|---------------------------11-9-11h9-8-9-8-4-| 
Db|----------11b-11----9h11-11------------------| 
Ab|-----9-11-------9h11-------------------------| 
Eb|-9h11----------------------------------------| 
 
eb|--------------------------------------------------------------|  
Bb|-55-4444--55-4444--5/77777--5/99999--121212121212-141414141414|
Gb|--------------------------------------------------------------|        
Db|--------------------------------------------------------------|        
Ab|--------------------------------------------------------------|        
Eb|--------------------------------------------------------------|       
PM .. .... .. .... ....... ....... 

eb|---------------------------| 
Bb|-161616161616161616161616~-|
Gb|---------------------------|
Db|---------------------------|
Ab|---------------------------|
Eb|---------------------------|

Bridge 
eb|-0~0000000000-000000000000000x-| 
Bb|-0~0000000000-000000000000000x-| 
Gb|-1~6666666666-444444444444444x-| 
Db|-2~6666666666-444444444444444x-| 
Ab|-2~4444444444-222222222222222x-| 
Eb|-0~xxxxxxxxxx-xxxxxxxxxxxxxxxx-| 
 
Chorus 
eb|-0000000000-0000000000-0000000000-0000000000-| 
Bb|-0000000000-0000000000-0000000000-0000000000-| 
Gb|-1111111111-2222222222-1111111111-6666666666-| 
Db|-2222222222-2222222222-2222222222-6666666666-|x3 
Ab|-2222222222-0000000000-2222222222-4444444444-| 
Eb|-0000000000-0000000000-0000000000-xxxxxxxxxx-| 
 
Outro 
eb|-0000000000-0000000000-000000000-000000000000x-| 
Bb|-0000000000-0000000000-000000000-000000000000x-| 
Gb|-1111111111-2222222222-111111111-222222222222x-| 
Db|-2222222222-2222222222-222222222-222222222222x-| 
Ab|-2222222222-0000000000-222222222-000000000000x-| 
Eb|-0000000000-0000000000-000000000-000000000000x-| 

Intro(guitar 1) 
            
Submit corrections


        Sidewalks lessons Hard to play? Try these video lessons and learn fast Sidewalks lessons
        
↑ Back to top | Tablatures and chords for acoustic guitar and electric guitar, ukulele, drums are parodies/interpretations of the original songs. You may use it for private study, scholarship, research or language learning purposes only