» » »

Story Of The Year - In The Shadows Tabs

Artists:  A B C D E F G H I J K L M N O P Q R S T U V W X Y Z # 

In The Shadows Tabs

(ver. 1) Click to play this song!
Story Of The Year
 Rating:
4/5 (4 votes)

 In The Shadows lessons Tabs too difficult? Try these video lessons and learn fast
 
                Label:  Maverick
I saw these guys in concert they ***ing rock!
Tuned Dadgbe
Intro    C      G            C	   C 	           C 	    C
e--------------------------------------------------------------------------------
b----------------------------------------------------------------------------
g------------7-7-7-------5-5-5-----5-5-5------5-5-5-----5-5-5----------
dā€”5-5-5ā€”-----5-5-5-------5-5-5-----5-5-5------5-5-5-----5-5-5--------
aā€”3-3-3------------------3-3-3-----3-3-3------3-3-3-----3-3-3------
D---------------------------------------------------------------------------
           Clean		Heavy Distortion
Verse
      E	   D	    E       C      G        D
e-----------------------------------------------------------------------------------
b-----------------------------------------------------------------------------------
g------------------------------------5-5------------------------------------------
d- 2-2----------0-0----------2-2-----5-5-----5-5-----0-0--------------------------
a- 2-2----------0-0----------2-2-----3-3-----5-5-----0-0--------------------------
D--2-2----------0-0----------2-2-------------5-5-----0-0---------------------------
		Heavy Distortion
		C
e-----------------------------------------------------------------------------------
b-----------------------------------------------------------------------------------
g-----------5-5-5-5-5-5-5-----------------------------------------------------------
d-----------5-5-5-5-5-5-5------------(repeat 4X)------------------------------------
a-----------3-3-3-3-3-3-3-----------------------------------------------------------
D-----------------------------------------------------------------------------------

Chorus  E		D		C
e------------------------------------------------------------------------------------
b-----------------------------------------------------------------------------------
g-------------------------- ---5-5-5-5-5-5-5-5-5-5-5-5-----------------------------
d----2-2-2-2-2-0-0-0-0-0-0-0-0-5-5-5-5-5-5-5-5-5-5-5-5---------------------------
a----2-2-2-2-2-0-0-0-0-0-0-0-0-3-3-3-3-3-3-3-3-3-5-5-5----------------------------
D----2-2-2-2-2-0-0-0-0-0-0-0-0---------------------------------------------------

This is basically the whole song.  You can figure out the other fills and parts by listening to the song.  Just use the same chords, C, E, D, &G.
            
Submit corrections


        In The Shadows lessons Hard to play? Try these video lessons and learn fast In The Shadows lessons
        
↑ Back to top | Tablatures and chords for acoustic guitar and electric guitar, ukulele, drums are parodies/interpretations of the original songs. You may use it for private study, scholarship, research or language learning purposes only