» » »

Story Of The Year - Cannonball Tabs

Artists:  A B C D E F G H I J K L M N O P Q R S T U V W X Y Z # 

Cannonball Tabs

(ver. 2) Click to play this song!
Story Of The Year
 Rating:
4.5/5 (8 votes)

 Cannonball lessons Tabs too difficult? Try these video lessons and learn fast
 
                Story of the Year
Cannonball
The Black Swan
Drop C

This is by far the best song on the new album, and the most fun to play! 
Enjoy.

Intro

|-----------------------------------------------------------|
|-----------------------------------------------------------|
|-----------------------------------------------------------|
|--------------5--5--7-------------------------5--5--101010-|
|-2-2--3--0----3--3--5----0-----2-2--3--0------3--3---8-8-8-|
|-2-2--3--0---------------0-----2-2--3--0-------------------|

|------------------------------------------------------|
|------------------------------------------------------|
|------------------------------------------------------|
|--------------5--5--7--------------1010101010-5-5-5-5-|
|-2-2--3--0----3--3--5--0-----2-2----8-8-8-8-8-3-3-3-3-|
|-2-2--3--0-------------0-----2-2----------------------|


Verse (x2)

|---------------------------------------------------------|
|---------------------------------------------------------|
|---------------------------------------------------------|
|----------------3p0--5----------------------3p0--5--2----|
|-0-0-0---0-0-0----------3---0-0-0---0-0-0-------------2b-|
|-0-0-0---0-0-0--------------0-0-0---0-0-0----------------|
  * * *   * * *              * * *   * * *

|----------------------------------------|
|----------------------------------------|
|----------------------------------------|
|--------------------3p0--5---5------(5)-| 
|-0-0-0---0-0-0-----------3---2------(5)-|
|-0-0-0---0-0-0----------------------(5)-|
  * * *   * * *

Chorus
(Strum Pattern is pretty simple)

|-------------------------|
|-------------------------|
|------5------------------|
|-3----5----5----5----0-2-|
|-3----3----5----5----0-2-|
|-3---------5----5----0-2-|

Intro
Pause
Verse (only once)
Chorus

Bridge

|------------------------------------------------------------------------|
|------------------------------------------------------------------------|
|------------------------------------------------------------------------|
|-------------------3p0-2b-----------------------3p0-5-------------------|
|-0-0-0---0-0-0-------------2--0-0-0---0-0-0-----------3--0-0-0----0-0-0-|
|-0-0-0---0-0-0----------------0-0-0---0-0-0--------------0-0-0----0-0-0-|
  * * *   * * *                * * *   * * *              * * *    * * *

|------|
|------|
|-3----|
|-3--5-|
|-1--5-|<<------Strum These chords
|----5-|

|---------------------------------------------------------------|
|---------------------------------------------------------------|
|---------------------------------------------------------------|
|---------------3p0-2b-------------------3p0-5------------------|
|-0000---0000-----------2--0000---0000-----------3--0000---0000-|
|-0000---0000--------------0000---0000--------------0000---0000-|
  ****   ****              ****   ****             ****   ****

|---------------|
|---------------|
|-3-------------|
|-3---5---7---9-|
|-1---5---7---9-| <<---Again, Strum these chords to lead into solo
|-----5---7---9-|

(I havent figured out the solo yet)

Chorus
Intro

Outro
(Repeat however many times)

|--------------------------------------------------|
|--------------------------------------------------|
|--------------------------------------------------|
|----------------3p0-2b--------------------3p0-5---|
|-0-0-0---0-0-0----------2--0-0-0---0-0-0--------3-|
|-0-0-0---0-0-0-------------0-0-0---0-0-0----------|
  * * *   * * *             * * *   * * *              



That's it!  Again great song, and if anyone wants to tackle the solo be my guest!!
Word.
            
Submit corrections


        Cannonball lessons Hard to play? Try these video lessons and learn fast Cannonball lessons
        
↑ Back to top | Tablatures and chords for acoustic guitar and electric guitar, ukulele, drums are parodies/interpretations of the original songs. You may use it for private study, scholarship, research or language learning purposes only