» » »

Story Of The Year - Apathy Is A Deathwish Tabs

Artists:  A B C D E F G H I J K L M N O P Q R S T U V W X Y Z # 

Apathy Is A Deathwish Tabs

(ver. 2) Click to play this song!
Story Of The Year
 Rating:
4/5 (5 votes)

 Apathy Is A Deathwish lessons Tabs too difficult? Try these video lessons and learn fast
 
                (Intro)


Come in at 11 Seconds.
----------------------------------------------------------------------------|
----------------------------------------------------------------------------|
----------------------------------------------------------------------------|
-----9------------------9-----------9------------------11---------9---------|
-------7-9------------7---9-----------7-9------------7----7-9-------7-9-----|
--11-------9--9/11-11-------9--9/11-------9--9/11-11------------11-------9--|

---------------------------------------------------------|
---------------------------------------------------------|
---------------------------------------------------------|
---------------------9--------11~-11-11-7~---------------|
--------------9-7------7-9----11~-11-11-7~---------------|
-9/11-11-11-9-----11-------9--11~-11-11-7~---------------|
                                  PALM MUTE THE 11's

Thats all I have time for. I will finish the rest in a day or so.  Hope you enjoy.
            
Submit corrections


        Apathy Is A Deathwish lessons Hard to play? Try these video lessons and learn fast Apathy Is A Deathwish lessons
        
↑ Back to top | Tablatures and chords for acoustic guitar and electric guitar, ukulele, drums are parodies/interpretations of the original songs. You may use it for private study, scholarship, research or language learning purposes only