» » »

Story Of The Year - Anthem Of Our Dying Day Bass

Artists:  A B C D E F G H I J K L M N O P Q R S T U V W X Y Z # 

Anthem Of Our Dying Day Bass

(ver. 2) Click to play this song!
Story Of The Year
 Rating:
4/5 (4 votes)

 Anthem Of Our Dying Day lessons Tabs too difficult? Try these video lessons and learn fast
 
                0:40
F|-------------------------------------------------|
C|-------------------------------------------------|
G|-------------------------------------------------|
C|-2-----------2-----------2-----------2-----------|

0:44
F|-------------------------------------------------|
C|-------------------------------------------------|
G|-2---2-2-2-2-2---2-2-2-2-2---2-2-2-2-2---2-2-0---|
C|-----------------------------------------------6-|

0:47
F|-------------------------------------------------|
C|-------------------------------------------------|
G|-------------------------------------------------|
C|-4---4-4-4-4-4---4-4-4-4-4---4-4-4-4-4---4-4-4-4-|

0:51
F|-------------------------------------------------|
C|-------------------------------------------------|
G|-------------------------------------------------|
C|-6---6-6-6-6-6---6-6-6-6-6---6-6-6-6-6---4---2---|

0:55
F|-------------------------------------------------|
C|-------------------------------------------------|
G|-6-----6-----6-----6-----7-----7-----7-----7-7-7-|
C|-------------------------------------------------|

F|-------------------------------------------------|
C|-------------------------------------------------|
G|-------------------------------------------------|
C|-6-----------6-----------6-----------2-2-2-2-2-2-|
REST
1:06
F|-------------------------------------------------|
C|-------------------------------------------------|
G|-------------------------------------------------|
C|-2-----2---2-2-----2---2-2-----2---2-2------2----|

1:09
F|-------------------------------------------------|
C|-------------------------------------------------|
G|-------------------------------------------------|
C|-6-6---------6---------6-6---------6-6-----------|

1:13
F|-------------------------------------------------|
C|-------------------------------------------------|
G|------------------------/7-----7-----7-----7-----|
C|-2-----2---2-2-----2---2-------------------------|

1:17
F|-------------------------------------------------|
C|---------4-6---------4-6---------4-6---------4-6-|
G|-----4-6---------4-6---------4-6---------4-6-----|
C|-6-6---------6-6---------6-6---------6-6---------|

1:21
F|-------------------------------------------------|
C|-------------------------2-----2---2-------------|
G|-------------------------------------------------|
C|-2-----2---2-2-----2---2-------------2------2----|

1:24
F|-------------------------------------------------|
C|-6-6-6-6-6-6-6-6-6-6-6-6-6-7-7-7-7-7-8-9-9-9-9-9-|
G|-------------------------------------------------|
C|-------------------------------------------------|

1:28
F|-------------------------------------------------|
C|-------------------------------------------------|
G|-------------------------------------------------|
C|-2-----2---2-2-----2----2-2----------------------|

1:32
F|-------------------------------9h11--------------|
C|-------------------------------------4---2---6---|
G|-2-----2---2-2---2---2---2-----------------------|
C|-------------------------------------------------|
   1   2   3   4   5   6   1   2   3   4   5   6
F|-------------------------------------------------|
C|-------------------------------------------------|
G|-------------------------------------------------|
C|-4-----4---4-4---4---4-4-4-----4---4-4---2---4---|

1:39
F|-------------------------------------------------|
C|-------------------------------------------------|
G|-------------------------------------------------|
C|-6---6-6-6-6-6---6-6-6-6-6---6-6-6-6-6---4---2---|

1:43
F|-------------------------------------------------|
C|-------------------------------------------------|
G|-6---6-6-6-6-6---6-6-6-6-7---7-7-7-7-------------|
C|-------------------------------------2---2---2---|

1:46
F|-------------------------------------------------|
C|-------------------------------------------------|
G|-------------------------------------------------|
C|-6-6---6---6-6-----------6-6---6-----2---2---2---|

1:51
F|-----------------------------------------------------------------|
C|-----------------------------------------------------------------|
G|-----------------------------------------------------------------|
C|-6-6---6---6-6-----------6-6---6-----2---2---2-------2---2---2---|

F|-------------------------------------------------|
C|-------------------------------------------------|
G|-------------------------------------------------|
C|-6-6---6---6-6-----------6-6---6-----2---2---2---|

1:59
F|-------------------------------------------------|
C|-------------------------------------------------|
G|-------------------------------------------------|
C|-6-6---6---6-6-----------6-6---6-----2---2---2---|

F|-------------------------------------------------|
C|-------------------------------------------------|
G|-------------------------------------------------|
C|-----2---2---2-------2---2---2-------2---2---2---|

REST
2:09
F|-------------------------------------------------|
C|-------------------------------------------------|
G|-------------------------------------------------|
C|-2-----2---2-2-----2---2-2-----2---2-2-----2---2-|

F|-------------------------------------------------|
C|-------------------------------------------------|
G|-------------------------------------------------|
C|-6-----------6-----------6-----------6-----------|

F|-------------------------------------------------|
C|-------------------------------------------------|
G|-------------------------------------------------|
C|-2-----------------------------------------------|

Break

2:31
F|-------------------------------------------------|
C|-------------------------------------------------|
G|-6-----------6-----------7-----7-----------------|
C|-------------------------------------2-----2-2-2-|

2:35
F|-------------------------------------------------|
C|-------------------------------------4---2---6---|
G|-2---2---2---2---2---2---2---2---2---------------|
C|-------------------------------------------------|

F|-------------------------------------------------|
C|-------------------------------------------------|
G|-------------------------------------------------|
C|-4---4---4---4---4---4---4---4---4---4---2---4---|

F|-------------------------------------------------|
C|-------------------------------------------------|
G|-------------------------------------------------|
C|-6---6---6---6---6---6---6---6---6---6---4---2---|

F|-------------------------------------------------|
C|-------------------------------------------------|
G|-6---6---6---6---6---6---7-----7-7---------------|
C|-------------------------------------2-----2-2---|

2:49
F|-------------------------------------------------|
C|-9-9-9-9-9-9-9---9---9---9---9---9---9---11--9---|
G|-------------------------------------------------|
C|-------------------------------------------------|

2:54
F|-------------------------------------------------|
C|-8---8---8---8---8---8---8---8---8---------------|
G|-------------------------------------9---7---9---|
C|-------------------------------------------------|

F|-------------------------------------------------|
C|-------------------------------------------------|
G|-------------------------------------------------|
C|-6---6---6---6---6---6---6---6---6---6---4---2---|

F|-------------------------------------------------|
C|-------------------------------------------------|
G|-6---6---6---6---6---6---7-----7-7---------------|
C|-------------------------------------2-----2-2---|

3:05
F|-------------------------------------------------|
C|-------------------------------------------------|
G|-------------------------------------------------|
C|-6-----------6-----------6-----------2-2-2-2-2-2-|

F|-------------------------------------------------|
C|-------------------------------------------------|
G|-------------------------------------------------|
C|-6-----------6-----------6-----------2---2---2---|

F|-------------------------------------------------|
C|-------------------------------------------------|
G|-------------------------------------------------|
C|-----2---2---2-------2---2---2-------2---2---2---|
            
Submit corrections


        Anthem Of Our Dying Day lessons Hard to play? Try these video lessons and learn fast Anthem Of Our Dying Day lessons
        
↑ Back to top | Tablatures and chords for acoustic guitar and electric guitar, ukulele, drums are parodies/interpretations of the original songs. You may use it for private study, scholarship, research or language learning purposes only