Home » S » Stormtroopers Of Death »

Stormtroopers Of Death - Milano Mosh Tabs

Artists:  A B C D E F G H I J K L M N O P Q R S T U V W X Y Z # 

Milano Mosh Tabs

(ver. 1) Click to play this song!
Stormtroopers Of Death
Milano Mosh by SOD

Riff A
|----------------------------------------------------|
|----------------------------------------------------|
|----------------------------------------------------|
|-----6----------------------------------------------|
|-5-4-4----------------------------------------------|
|-3-2------------------------------------------------|

Riff B (Temolo picking)
|----------------------------------------------------|
|----------------------------------------------------|
|----------------------------------------------------|
|----------------------------------------------------|
|----------------------------------------------------|
|-0000000000000000-----------------------------------|
  ................

Riff C
|----------------------------------------------------|
|----------------------------------------------------|
|----------------------------------------------------|
|-5--6--5--4-5-6-------------------------------------|
|-3--4--3--2-3-4-------------------------------------|
|----------------------------------------------------|

Alternate A
|----------------------------------------------------|
|----------------------------------------------------|
|-------13-------------------------------------------|
|-12-11-11-------------------------------------------|
|-10-9-----------------------------------------------|
|----------------------------------------------------|

Riff D
|----------------------------------------------------|
|----------------------------------------------------|
|----------------------------------------------------|
|-5-6-5----------------------------------------------|
|-3-4-3-2-2-2----------------------------------------|
|-------0-0-0----------------------------------------|
        . . .

End (Slide)
|----------------------------------------------------|
|----------------------------------------------------|
|----------------------------------------------------|
|-5\-------------------------------------------------|
|-3\-------------------------------------------------|
|----------------------------------------------------|
            
Submit corrections

↑ Back to top | Tablatures and chords for acoustic guitar and electric guitar, ukulele, drums are parodies/interpretations of the original songs. You may use it for private study, scholarship, research or language learning purposes only