Home » S » Stormtroopers Of Death »

Stormtroopers Of Death - Identity Tabs

Artists:  A B C D E F G H I J K L M N O P Q R S T U V W X Y Z # 

Identity Tabs

(ver. 1) Click to play this song!
Stormtroopers Of Death
[Intro]

e|--------------------------|
B|--------------------------|
G|--------------------------|
D|--------------------------|
A|--3---2---5---4-----------|
E|--1---0---3---2-----------|


e|---------------------------------------------------| (x4)
B|---------------------------------------------------|
G|---------------------------------------------------|
D|---------------------------------------------------|
A|----5--4------5--4-------5--4--0------5--4---------|
E|--3---------3----------3-----------3---------------|

[Verse]
e|----------|---------|---------|---------|---------|-----------|------------------|
B|----------|---------|---------|---------|---------|-----------|------------------|
G|----------|---------|---------|---------|---------|-----------|------------------|
D|----------|---------|---------|---------|---------|-----------|------------------|
A|--3-3-3-3-|-3-3-3-3-|-3-3-3-3-|-3-3-3-3-|-3-3-3-3-|-3-3-3-3---|---3---2---5---4--|
E|--1-1-1-1-|-1-1-1-1-|-1-1-1-1-|-1-1-1-1-|-1-1-1-1-|-1-1-1-1---|---1---0---3---2--|


e|---------------------------------------------------| (x2)
B|---------------------------------------------------|
G|---------------------------------------------------|
D|---------------------------------------------------|
A|----5--4------5--4-------5--4--0------5--4---------|
E|--3---------3----------3-----------3---------------|

[Verse]
e|----------|---------|---------|---------|---------|-----------|------------------|
B|----------|---------|---------|---------|---------|-----------|------------------|
G|----------|---------|---------|---------|---------|-----------|------------------|
D|----------|---------|---------|---------|---------|-----------|------------------|
A|--3-3-3-3-|-3-3-3-3-|-3-3-3-3-|-3-3-3-3-|-3-3-3-3-|-3-3-3-3---|---3---2---5---4--|
E|--1-1-1-1-|-1-1-1-1-|-1-1-1-1-|-1-1-1-1-|-1-1-1-1-|-1-1-1-1---|---1---0---3---2--|


e|---------------------------------------------------| (x2)
B|---------------------------------------------------|
G|---------------------------------------------------|
D|---------------------------------------------------|
A|----5--4------5--4-------5--4--0------5--4---------|
E|--3---------3----------3-----------3---------------|

[Chorus]
e|----------|---------|---------|---------|---------|----------|-----------------|
B|----------|---------|---------|---------|---------|----------|-----------------|
G|----------|---------|---------|---------|---------|----------|-----------------|
D|--3-3-3-3-|-3-3-3-3-|---------|---------|-3-3-3-3-|-3-3-3-3--|-----------------|
A|--1-1-1-1-|-1-1-1-1-|-5-5-5-5-|-5-5-5-5-|-1-1-1-1-|-1-1-1-1--|--3---2---5---4--|
E|----------|---------|-3-3-3-3-|-3-3-3-3-|---------|----------|--1---0---3---2--|


e|---------------------------------------------------| (x2)
B|---------------------------------------------------|
G|---------------------------------------------------|
D|---------------------------------------------------|
A|----5--4------5--4-------5--4--0------5--4---------|
E|--3---------3----------3-----------3---------------|


[Verse]
e|----------|---------|---------|---------|---------|-----------|------------------|
B|----------|---------|---------|---------|---------|-----------|------------------|
G|----------|---------|---------|---------|---------|-----------|------------------|
D|----------|---------|---------|---------|---------|-----------|------------------|
A|--3-3-3-3-|-3-3-3-3-|-3-3-3-3-|-3-3-3-3-|-3-3-3-3-|-3-3-3-3---|---3---2---5---4--|
E|--1-1-1-1-|-1-1-1-1-|-1-1-1-1-|-1-1-1-1-|-1-1-1-1-|-1-1-1-1---|---1---0---3---2--|


e|---------------------------------------------------| (x4)
B|---------------------------------------------------|
G|---------------------------------------------------|
D|---------------------------------------------------|
A|----5--4------5--4-------5--4--0------5--4---------|
E|--3---------3----------3-----------3---------------|


e|-----------|
B|-----------|
G|-----------|
D|-----------|
A|--2--------|
E|--0--------|

   (all palm muted except for the last 2 repeats)
e|---------------------------------------------------------------------------| (x4)
B|---------------------------------------------------------------------------|
G|---------------------------------------------------------------------------|
D|---------------------------------------------------------------------------|
A|-4-4-4-4-3-3-3-3-4-4-4-4-3-3-3-3-2-2-2-2-5-5-5-5-4-4-4-4-3-3-3-3-----------|
E|-2-2-2-2-1-1-1-1-2-2-2-2-1-1-1-1-0-0-0-0-3-3-3-3-2-2-2-2-1-1-1-1-----------|
   * * * * * * * * * * * * * * * * * * * * * * * * * * * * * * * *

e|---------------------------------------------------| (x4)
B|---------------------------------------------------|
G|---------------------------------------------------|
D|---------------------------------------------------|
A|----5--4------5--4-------5--4--0------5--4---------|
E|--3---------3----------3-----------3---------------|


e|-----------|
B|-----------|
G|-----------|
D|-----------|
A|--2--------|
E|--0--------|


e|--------------------------|
B|--------------------------|
G|--------------------------|
D|--------------------------|
A|--3---2---5---4-----------|
E|--1---0---3---2-----------|


[Verse]
e|----------|---------|---------|---------|---------|-----------|------------------|
B|----------|---------|---------|---------|---------|-----------|------------------|
G|----------|---------|---------|---------|---------|-----------|------------------|
D|----------|---------|---------|---------|---------|-----------|------------------|
A|--3-3-3-3-|-3-3-3-3-|-3-3-3-3-|-3-3-3-3-|-3-3-3-3-|-3-3-3-3---|---3---2---5---4--|
E|--1-1-1-1-|-1-1-1-1-|-1-1-1-1-|-1-1-1-1-|-1-1-1-1-|-1-1-1-1---|---1---0---3---2--|


e|---------------------------------------------------| (x2)
B|---------------------------------------------------|
G|---------------------------------------------------|
D|---------------------------------------------------|
A|----5--4------5--4-------5--4--0------5--4---------|
E|--3---------3----------3-----------3---------------|


[Verse]
e|----------|---------|---------|---------|---------|-----------|------------------|
B|----------|---------|---------|---------|---------|-----------|------------------|
G|----------|---------|---------|---------|---------|-----------|------------------|
D|----------|---------|---------|---------|---------|-----------|------------------|
A|--3-3-3-3-|-3-3-3-3-|-3-3-3-3-|-3-3-3-3-|-3-3-3-3-|-3-3-3-3---|---3---2---5---4--|
E|--1-1-1-1-|-1-1-1-1-|-1-1-1-1-|-1-1-1-1-|-1-1-1-1-|-1-1-1-1---|---1---0---3---2--|


e|---------------------------------------------------| (x2)
B|---------------------------------------------------|
G|---------------------------------------------------|
D|---------------------------------------------------|
A|----5--4------5--4-------5--4--0------5--4---------|
E|--3---------3----------3-----------3---------------|


[Chorus]
e|----------|---------|---------|---------|---------|----------|-----------------|
B|----------|---------|---------|---------|---------|----------|-----------------|
G|----------|---------|---------|---------|---------|----------|-----------------|
D|--3-3-3-3-|-3-3-3-3-|---------|---------|-3-3-3-3-|-3-3-3-3--|-----------------|
A|--1-1-1-1-|-1-1-1-1-|-5-5-5-5-|-5-5-5-5-|-1-1-1-1-|-1-1-1-1--|--3---2---5---4--|
E|----------|---------|-3-3-3-3-|-3-3-3-3-|---------|----------|--1---0---3---2--|


e|---------------------------------------------------| (x2)
B|---------------------------------------------------|
G|---------------------------------------------------|
D|---------------------------------------------------|
A|----5--4------5--4-------5--4--0------5--4---------|
E|--3---------3----------3-----------3---------------|


[Outro]
e|---------|---------|---------|---------|---------|-----------|-------------------|
B|---------|---------|---------|---------|---------|-----------|-------------------|
G|---------|---------|---------|---------|---------|-----------|-------------------|
D|-3-3-3-3-|-3-3-3-3-|-3-3-3-3-|-3-3-3-3-|-3-3-3-3-|-3-3-3-3---|-------------------|
A|-1-1-1-1-|-1-1-1-1-|-1-1-1-1-|-1-1-1-1-|-1-1-1-1-|-1-1-1-1---|---3---2---5---4---|
E|---------|---------|---------|---------|---------|-----------|---1---0---3---2---|            
Submit corrections

↑ Back to top | Tablatures and chords for acoustic guitar and electric guitar, ukulele, drums are parodies/interpretations of the original songs. You may use it for private study, scholarship, research or language learning purposes only