Home » S » Stormtroopers Of Death »

Stormtroopers Of Death - Free Dirty Needles Tabs

Artists:  A B C D E F G H I J K L M N O P Q R S T U V W X Y Z # 

Free Dirty Needles Tabs

(ver. 1) Click to play this song!
Stormtroopers Of Death
[INTRO/OUTRO]
Eb|--------------------------------------------------------------|
Bb|--------------------------------------------------------------|
Gb|10----10----10--9--------------7-----7-----10--9--------------|
Db|10----10----10--9--------------7-----7-----10--9--------------|
Ab|8-----8-----8---7--------------5-----5-----8---7--------------|
Eb|8-----8-----8---7--------------5-----5-----8---7--------------|

Play that three times, and then play this the fourth time:
Eb|--------------------------------------------------------------|
Bb|-------------------------------3------------------------------|
Gb|10----10----10--9-----9----9---2------------------------------|
Db|10----10----10--9-----9----9---0------------------------------|
Ab|8-----8-----8---7-----7----7---0------------------------------|
Eb|8-----8-----8---7-----7----7----------------------------------|

[VERSE]
Eb|--------------------------------------------------------------|
Bb|--------------------------------------------------------------|
Gb|--------------------------------------------------------------|
Db|2-------------------------------10----------9-----10------3---|
Ab|2---2-2-2-2-2-2-2-2-2-2-2-2-2-2-10----------9-----10------3---|
Eb|0---0-0-0-0-0-0-0-0-0-0-0-0-0-0-8-------0---7-----8-------1---|

Eb|--------------------------------------------------------------|
Bb|--------------------------------------------------------------|
Gb|--------------------------------------------------------------|
Db|2-------------------------------------------7-----7-------3---|
Ab|2---2-2-2-2-2-2-2-2-2-2-2-2-2-2-5---5---2---7-----7-------3---|
Eb|0---0-0-0-0-0-0-0-0-0-0-0-0-0-0-3---3---0---5-----5-------1---|

[CHORUS]
Eb|--------------------------------------------------------------|
Bb|--------------------------------------------------------------|
Gb|--------------------------------------------------------------|
Db|5-----5-----4---7---------------5-----4-----5---2-------------|
Ab|5-----5-----4---7---------------5-----4-----5---2-------------|
Eb|3-----3-----2---5---------------3-----2-----3---0-------------|

On the last time, play this:
Eb|--------------------------------------------------------------|
Bb|--------------------------------------------------------------|
Gb|--------------------------------10----10----10--9-------------|
Db|5-------------------------------10----10----10--9-------------|
Ab|5-------------------------------8-----8-----8---7-------------|
Eb|3-------------------------------8-----8-----8---7-------------|
            
Submit corrections

↑ Back to top | Tablatures and chords for acoustic guitar and electric guitar, ukulele, drums are parodies/interpretations of the original songs. You may use it for private study, scholarship, research or language learning purposes only