» » »

Stone Sour - 666inhale666 Tabs

Artists:  A B C D E F G H I J K L M N O P Q R S T U V W X Y Z # 

666inhale666 Tabs

(ver. 2) Click to play this song!
Stone Sour
 Rating:
4/5 (4 votes)
                intro

---------------------------------------
---------------------------------------
---------------------------------------
-0--7--6/2--3--------------------------
---------------------------------------
---------------------------------------

---------------------------------------
---------------------------------------
---------------------------------------
---------------------------------------
-0--7--6/2--3--------------------------
-0--7--6/2--3--------------------------


------------------------------------------
------------------------------------------
------------------------------------------
-5-5-5-------------5-5-5--------3-3-2-2-2-
-5-5-5-------------5-5-5--------3-3-2-2-2-
-5-5-5-------------5-5-5--------3-3-2-2-2-

-------------------------------------------
-------------------------------------------
-------------------------------------------
-------------------------------------------
3-3-3-3-5-5-5-2----3-3-3-3-3-3-5-5-5-5-5-2-
3-3-3-3-5-5-5-0----3-3-3-3-3-3-5-5-5-5-5-0-
            
Submit corrections

↑ Back to top | Tablatures and chords for acoustic guitar and electric guitar, ukulele, drums are parodies/interpretations of the original songs. You may use it for private study, scholarship, research or language learning purposes only