» » »

Stonefield - Delusion Tabs

Artists:  A B C D E F G H I J K L M N O P Q R S T U V W X Y Z # 

Delusion Tabs

(ver. 1) Click to play this song!
Stonefield
 Rating:
4.3/5 (20 votes)

 Delusion lessons Tabs too difficult? Try these video lessons and learn fast
 
                [Intro]

e|---------------------------------------------------------------------------|
B|---------------------------------------------------------------------------|
G|---------------------------------------------------------------------------|
D|---------------------------------------------------------------------------|
A|17~-16~----10p9-------10p9-------------10p9--------------------------------|
E|15~-14~---0----10-12-0----10-12-10-12-0----10-12-8-8-8/10-10-10------------|

e|---------------------------------------------------------------------------|
B|---------------------------------------------------------------------------|
G|---------------------------------------------------------------------------|
D|----10p9-------10p9-------------10p9---------------------------------------|
A|---0----10-12-0----10-12-10-12-0----10-12-8-8-8/10-10-10-------------------|
E|---------------------------------------------------------------------------|

e|---------------------------------------------------------------------------|
B|---------------------------------------------------------------------------|
G|---------------------------------------------------------------------------|
D|---------------------------------------------------------------------------|
A|----10p9-------10p9-------------10p9---------------------------------------|
E|---0----10-12-0----10-12-10-12-0----10-12-8-8-8/10-10-10-------------------|

e|---------------------------------------------------------------------------|
B|---------------------------------------------------------------------------|
G|---------------------------------------------------------------------------|
D|----10p9-------10p9-------------10p9---------------------------------------|
A|---0----10-12-0----10-12-10-12-0----10-12-8-8-8/10-10-10-------------------|
E|---------------------------------------------------------------------------|


[Verse]

e|---------------------------------------------------------------------------|
B|---------------------------------------------------------------------------|
G|---------------------------------------------------------------------------| \x4
D|---------------------------------------------------------------------------| /
A|-12h14-14-14-14-14-14-14b15-14-14-14-14-14-14------------------------------|
E|---------------------------------------------------------------------------|

e|---------------------------------------------------------------------------|
B|---------------------------------------------------------------------------|
G|---------------------------------------------------------------------------| \x2
D|----------12-----------------------------12--------------------------------| /
A|-14~-14h15--15-14h15p14p12h14-12-14-14h15--15-14h15p14p12h14---------------|
E|---------------------------------------------------------------------------|

[Intro]

e|---------------------------------------------------------------------------|
B|---------------------------------------------------------------------------|
G|---------------------------------------------------------------------------|
D|---------------------------------------------------------------------------|
A|17~-16~----10p9-------10p9-------------10p9--------------------------------|
E|15~-14~---0----10-12-0----10-12-10-12-0----10-12-8-8-8/10-10-10------------|

e|---------------------------------------------------------------------------|
B|---------------------------------------------------------------------------|
G|---------------------------------------------------------------------------|
D|----10p9-------10p9-------------10p9---------------------------------------|
A|---0----10-12-0----10-12-10-12-0----10-12-8-8-8/10-10-10-------------------|
E|---------------------------------------------------------------------------|

e|---------------------------------------------------------------------------|
B|---------------------------------------------------------------------------|
G|---------------------------------------------------------------------------|
D|---------------------------------------------------------------------------|
A|----10p9-------10p9-------------10p9---------------------------------------|
E|---0----10-12-0----10-12-10-12-0----10-12-8-8-8/10-10-10-------------------|

e|---------------------------------------------------------------------------|
B|---------------------------------------------------------------------------|
G|---------------------------------------------------------------------------|
D|----10p9-------10p9-------------10p9---------------------------------------|
A|---0----10-12-0----10-12-10-12-0----10-12-8-8-8/10-10-10-------------------|
E|---------------------------------------------------------------------------|


[Verse]

e|---------------------------------------------------------------------------|
B|---------------------------------------------------------------------------|
G|---------------------------------------------------------------------------| \x4
D|---------------------------------------------------------------------------| /
A|-12h14-14-14-14-14-14-14b15-14-14-14-14-14-14------------------------------|
E|---------------------------------------------------------------------------|

e|---------------------------------------------------------------------------|
B|---------------------------------------------------------------------------|
G|---------------------------------------------------------------------------| \x2
D|----------12-----------------------------12--------------------------------| /
A|-14~-14h15--15-14h15p14p12h14-12-14-14h15--15-14h15p14p12h14---------------|
E|---------------------------------------------------------------------------|

[Chorus]

e|---------------------------------------------------------------------------|
B|---------------------------------------------------------------------------|
G|---------------------------------------------------------------------------|
D|---------------------------------------------------------------------------|
A|21-20-19~---14~-----21-20-19~---17-16-14~----------------------------------|
E|19-18-17~---12~-----19-18-17~---15-14-12~----------------------------------|

e|---------------------------------------------------------------------------|
B|---------------------------------------------------------------------------|
G|---------------------------------------------------------------------------|
D|---------------------------------------------------------------------------|
A|21-20-19~---14~-----21-20-19~---17-16-14~----------------------------------|
E|19-18-17~---12~-----19-18-17~---15-14-12~----------------------------------|


[Bridge]

e|---------10-------------------------------10-------------------------------|
B|12~-12-13--13-12h13p12p10h12--10-12~-12-13--13-12h13p12p10h12--------------|
G|---------------------------------------------------------------------------|
D|---------------------------------------------------------------------------|
A|---------------------------------------------------------------------------|
E|---------------------------------------------------------------------------|

e|------------10-------------------------------10----------------------------|
B|10-12~-12-13--13-12h13p12p10h12--10-12~-12-13--13-12h13p12p10h12-----------|
G|---------------------------------------------------------------------------|
D|---------------------------------------------------------------------------|
A|---------------------------------------------------------------------------|
E|---------------------------------------------------------------------------|

e|------------10-----------------12h13p12------------------------------------|
B|10-12~-12-13--13-12h13p12p10h12--------13-12h13p12-10----------------------|
G|---------------------------------------------------------------------------|
D|---------------------------------------------------------------------------|
A|---------------------------------------------------------------------------|
E|---------------------------------------------------------------------------|

e|----------10-----------------12h13p12--------------------------------------|
B|-12~-12-13--13-12h13p12p10h12--------13-12h13p12-10------------------------|
G|---------------------------------------------------------------------------| \x3
D|---------------------------------------------------------------------------| / 
A|---------------------------------------------------------------------------|
E|---------------------------------------------------------------------------|

[Outro]

e|---------------------------------------------------------------------------|
B|---------------------------------------------------------------------------|
G|---------------------------------------------------------------------------|
D|---------------------------------------------------------------------------|
A|17~-16~----10p9-------10p9-------------10p9--------------------------------|
E|15~-14~---0----10-12-0----10-12-10-12-0----10-12-8-8-8/10-10-10------------|

e|---------------------------------------------------------------------------|
B|---------------------------------------------------------------------------|
G|---------------------------------------------------------------------------|
D|----10p9-------10p9-------------10p9---------------------------------------|
A|---0----10-12-0----10-12-10-12-0----10-12-8-8-8/10-10-10-------------------|
E|---------------------------------------------------------------------------|

e|---------------------------------------------------------------------------|
B|---------------------------------------------------------------------------|
G|---------------------------------------------------------------------------|
D|---------------------------------------------------------------------------|
A|----10p9-------10p9-------------10p9---------------------------------------|
E|---0----10-12-0----10-12-10-12-0----10-12-8-8-8/10-10-10-------------------|

e|---------------------------------------------------------------------------|
B|---------------------------------------------------------------------------|
G|---------------------------------------------------------------------------|
D|----10p9-------10p9-------------10p9---------------------------------------|
A|---0----10-12-0----10-12-10-12-0----10-12-8-8-8/10-10-10-------------------|
E|---------------------------------------------------------------------------|

            
Submit corrections


        Delusion lessons Hard to play? Try these video lessons and learn fast Delusion lessons
        
↑ Back to top | Tablatures and chords for acoustic guitar and electric guitar, ukulele, drums are parodies/interpretations of the original songs. You may use it for private study, scholarship, research or language learning purposes only