Home » S » Sting »

Sting - I Hung My Head Tabs

Artists:  A B C D E F G H I J K L M N O P Q R S T U V W X Y Z # 

I Hung My Head Tabs

(ver. 1) Click to play this song!
Sting
 Rating:
3.7/5 (6 votes)
                
Tuning: Standard, with capo on 3th. fret

Well it's a bit tricky rythm. It's not 9/8, but 5+4/8. Sounds weird, but it isn't hard if you know the song.

Heres the rythm in eigths. The marks: *, are the beat.

*     *     *  *     * 
1  2  3  4  5  1  2  3  4


Intro, Verses, Interludes:
e|----------------|--------0-------|----------------|--------0-------|
B|--------0-------|----1h3----1---1|----------------|----1h3----1---1|
G|----0h2---------|--0-------------|--------0-------|--0-------------|
D|--0--------0---0|----------------|----2h4---------|----------------|
A|----------------|3--------3---0--|--2--------2---2|3--------3---2--|
E|3--------3---0--|----------------|0--------0---3--|----------------|

Bridge:
e|----------------|----------------|----------------|----------------|
B|------0h1-------|------0h1-------|------0h1-------|--------0-------|
G|----2------2---2|----4-----------|----2------2---2|----0h2----0---0|
D|--2-------------|--0--------0---0|0-0------0---4--|--0-------------|
A|0--------0------|----------------|----------------|----------------|
E|-------------3--|2--------2---0--|----------------|3--------3---0--|

e|--------0-------|----------------|
B|----1h3----1---1|----------------|
G|--0-------------|--------0-------|
D|----------------|----2h4----2---2|
A|3--------3---0--|--2----------3--|
E|----------------|0--------3------|

Chorus:
e|----------------|--------0-------|
B|--------0-------|----1h3----1---1|
G|----0h2----0---0|--0-------------|
D|--0-------------|----------------| Repeat.
A|----------------|3--------3---0--|
E|3--------3---0--|----------------|

So, it's pretty easy, just learn the rythm :)
Enjoy!
            
Submit corrections

↑ Back to top | Tablatures and chords for acoustic guitar and electric guitar, ukulele, drums are parodies/interpretations of the original songs. You may use it for private study, scholarship, research or language learning purposes only