Home » S » Stilt Skin »

Stilt Skin - Inme Tabs

Artists:  A B C D E F G H I J K L M N O P Q R S T U V W X Y Z # 

Inme Tabs

(ver. 1) Click to play this song!
Stilt Skin
Normal Tuning
Sorry about themess, it was a rushed job.
Main Riff
|----------------------------------------------------------------------------|
|----------------------------------------------------------------------------|
|---------7------------------------------------9----9---9----9--9--9------|
|---------7----4--5--7------7---------------9-----9----9---9--9--9------|
|---------5------------------7---4---5--7---7-----7----7---7--7--7------|
|-----------------------------5----------------------------------------------|

Verse (this bit is mostly played by the bass)

|----------------------------------------------------------------------------|
|--------------------------2------------------------------------------------|
|----------------5--------2-------5---------------------------------------|
|--------2-------5--------2-------5---------------------------------------|
|--------2-------3-----------------3--------------------------------------|
|---------------------------------------------------------------------------|



Pre-Chorus

|----------------------------------------------------------------------------|
|----------------------------------------------------------------------------|
|-----------x-x-x-x-------x-x-x-x-----------5---------------------------|
|-------2--x--x-x-x--5-5-x-x-x-x---7-7----5---------------------------|
|-------2--x--x-x-x--5-5-x-x-x-x---7-7----3---------------------------|
|-----------x--x-x-x--3-3-x-x-x-x--5-5----------------------------------|

You should be able to work out the order, its quite easy.
            
Submit corrections

↑ Back to top | Tablatures and chords for acoustic guitar and electric guitar, ukulele, drums are parodies/interpretations of the original songs. You may use it for private study, scholarship, research or language learning purposes only