Home » S » Sticky Fingers »

Sticky Fingers - Our Town Bass

Artists:  A B C D E F G H I J K L M N O P Q R S T U V W X Y Z # 

Our Town Bass

(ver. 1) Click to play this song!
Sticky Fingers
[Verse 1]

G|-------------------|-----------------|------------------|--------------|
D|--------7----------|-----9-----7--6--|------------------|-9--9--9------|
A|------7----7-------|--7-----7--------|------7-----5--4--|--------------|
E|---5----------5----|-----------------|---5-----5--------|----------9---|x3

[Bridge 1] 

"Don't be standing on the sidelines when we SHOW UP"

G|---------------------------------------------------|
D|-------------------------------------------9-------|
A|---------------------------------------------------|
E|------------------------------------------------9--|

"Come along let's live together this is OUR TOWN"

G|-------------------------------------------6-----|
D|---------------------------------------6---------|
A|-------------------------------------------------|
E|-------------------------------------------------|

[Chorus 1]

G|---------------|------------6-----|--------------------|
D|---------------|------7--9--------|--7---7----9--9-----|
A|-5--5--5p4--4--|--/9-----------7--|----7------------5--|
E|---------------|------------------|--------------------|

G|-----------------|-----------------|--------------------|--9--9--7--9--7--6--|
D|-----------------|--------------2--|--7---7----9--9-----|--------------------|
A|12\5--5--5p4--4--|--------2--4-----|----7------------5--|--------------------|
E|-----------------|--2--5-----------|--------------------|--------------------|

[Verse]x3


[Bridge 2] 


"Don't be standing on the sidelines when we SHOW UP"

G|---------------------------------------------------|
D|---7----7----7----7----7----7----7----7----9-------|
A|---------------------------------------------------|
E|------------------------------------------------9--|

"Come along let's live together this is  OUR TOWN"

G|--------------------------------------------6-----|
D|7----7----7----7----7----7----7----7----6---------|
A|--------------------------------------------------|
E|--------------------------------------------------|

[Chorus 2]

G|---------------|------------6-----|--------------------|
D|---------------|------7--9--------|--7---7----9--9-----|
A|-5--5--5p4--4--|--/9-----------7--|----7------------5--|
E|---------------|------------------|--------------------|

G|-----------------|-----------------|--------------------|--11--11--11--11--9--9--9--7----|
D|-----------------|--------------2--|--7---7----9--9-----|--------------------------------|
A|12\5--5--5p4--4--|--------2--4-----|----7------------5--|--------------------------------|
E|-----------------|--2--5-----------|--------------------|--------------------------------|

[Guitar Solo]

G|------------------|------------6-----|--------------------|
D|------------------|------7--9--------|--7---7----9--9-----|
A|-12\5--5--5p4--4--|--/9-----------7--|----7------------5--|
E|------------------|------------------|--------------------|x2

[Outro]

G|-----------------|-----------------|--------------------|
D|-----------------|--------------2--|--7---7----9--9-----|
A|12\5--5--5p4--4--|--------2--4-----|----7------------5--|
E|-----------------|--2--5-----------|--------------------|

G|------------------|------------6-----|
D|------------------|------7--9--------|
A|-12/5--5--5p4--4--|--/9-----------7--|
E|------------------|------------------|            
Submit corrections

↑ Back to top | Tablatures and chords for acoustic guitar and electric guitar, ukulele, drums are parodies/interpretations of the original songs. You may use it for private study, scholarship, research or language learning purposes only