Home » S » Sticky Fingers »

Sticky Fingers - Our Town Tabs

Artists:  A B C D E F G H I J K L M N O P Q R S T U V W X Y Z # 

Our Town Tabs

(ver. 1) Click to play this song!
Sticky Fingers
e|-12/14-12------------------------------------------------------------------------|
B|----------14/17-----------------------------------17-14--------------------------|
G|----------------14---16/18-16-14h16p14------------------16h18h16-14----14h16p14--|
D|---------------------------------------16--14-16--------------------16-----------|
A|---------------------------------------------------------------------------------|
E|---------------------------------------------------------------------------------|

e|----------------------------------------------------------------------------|
B|----------------------------------------------------------------------------|
G|-----18p16----16p14----14p13----13p11----14p13----13p11--/13-11----11-------|
D|-/16-------14-------12-------11-------12-------11---------------14----14-11-|
A|----------------------------------------------------------------------------|
E|----------------------------------------------------------------------------|

e|----------------------------------------------------------------------------|
B|-----------------------------------------------------------------12-14------|
G|-------11-------14-11----11-----9h11p9---7-----------11-14-11-14------------|
D|-11-14----14-11-------14----14---------9-----9h11-14------------------------|
A|----------------------------------------------------------------------------|
E|----------------------------------------------------------------------------|            
Submit corrections

↑ Back to top | Tablatures and chords for acoustic guitar and electric guitar, ukulele, drums are parodies/interpretations of the original songs. You may use it for private study, scholarship, research or language learning purposes only