» » »

Steven Curtis Chapman - Cinderella Tabs

Artists:  A B C D E F G H I J K L M N O P Q R S T U V W X Y Z # 

Cinderella Tabs

(ver. 1) Click to play this song!
Steven Curtis Chapman
 Rating:
4.2/5 (5 votes)

 Cinderella lessons Tabs too difficult? Try these video lessons and learn fast
 
                Cinderella Acoustic Version, Steven Curtis Chapman
==========================================

*** 1/2 step down from recording
*** B string tuned down to A

Listen to recording for timing - this is just meant to chord shapes :)
STRUM OPEN STRINGS THROUGHOUT

Intro:
E-------------------------------------------|
A-------------------------------------------|
G----4/6--6/9--6--4--2/4 4/6--9--9/11\9-----|
D----4/6--6/9--6--4--2/4-4/6--9-------------|
A-------------------------------------------|
E-------------------------------------------|

Verse A: (She spins and she....)
E-------------------------------------------|
A-------------------------------------------|
G---2--1h2-----6---- 7-6-7-6--2--7----------|
D---2--2-------6-----7-7-7-7--2--7----------|
A--------------4-----5-5-5-5-----5----------|
E---2--2----------------------2-------------|

Verse B: (It's been a long day...)
E----------------------------------------2--|
A----------------------------------------2--|
G---2--1^2-----6---- 7-6-7-6--2--2-1--2--4--|
D---2--2-------6-----7-7-7-7--2--2-2--2--2--|
A--------------4-----5-5-5-5-----2-2-----2--|
E---2--2----------------------2-------2--4--|



Chorus A: (So I will dance with Cinderella...)
E-------------------------------------------|
A-------------------------------------------|
G--2--4--6--7--2--2--1--1h2-----------------|
D--2--4--6--7--2--2--2----------------------|
A-----2--4--5-----2--2----------------------|
E--------------2----------------------------|

          (Because I know something...)
E--------------------------2----------------|
A--------------------------2----------------|
G--2--2--2--1h2--2--1---2--4----------------|
D--2--2--2-------2--2---2--2----------------|
A-----2----------2--2------2----------------|
E--2--------------------2--4----------------|



Chorus B: (Oh I will dance with Cinderella...)
E-------------------------------------------|
A-------------------------------------------|
G--2--4--6--7--2--2--1--1h2-----------------|
D--2--4--6--7--2--2--2----------------------|
A-----2--4--5-----2--2----------------------|
E--------------2----------------------------|

          (Because all to soon...)
E-------------------------------------------|
A-------------------------------------------|
G--2--2--2--4--6--7-6-7-<7>--2--1-1h2-------|
D--2--2--2--4--6--7-7-7-<7>--2--2-----------|
A-----2-----2--4--7-7-7-<7>-----2-----------|
E--2-------------------------2--------------|


================


Verse B (She says he's a nice guy...)
Chorus A
Chorus B (w/fill 1 ending):
E-------------------------------------------|
A-------------------------------------------|
G--2--4--6--7--2--2--1--1h2-----------------|
D--2--4--6--7--2--2--2----------------------|
A-----2--4--5-----2--2----------------------|
E--------------2----------------------------|

          (Because all to soon...)
E-----------------------------------3-2-0------------2--|
A----------------------------------------------------2--|
G--2--2--2--4--6--7-6-7-<8>--2--1---------7-6-4--2-2-4--|
D--2--2--2--4--6--7-7-7-<8>--2--2----------------2-2-2--|
A-----2-----2--4--7-7-7-<8>-----2---------9-7-5--2---2--|
E--2-------------------------2---------------------2-4--|


================


Verse B (soft): (She came home today with a ring...)
Chorus A (soft)
Chorus B (w/fill 2 ending):
E-------------------------------------------|
A-------------------------------------------|
G--2--4--6--7--2--2--1--1h2-----------------|
D--2--4--6--7--2--2--2----------------------|
A-----2--4--5-----2--2----------------------|
E--------------2----------------------------|

          (Because all to soon...)
E-------------------------------------------------------|
A-------------------------------------------------------|
G--2--2--2--4--6--7-6-7-<8>--2--1---1/2/4/6/7/9/11------|
D--2--2--2--4--6--7-7-7-<8>--2--2-----------------------|
A-----2-----2--4--7-7-7-<8>-----2-----------------------|
E--2-------------------------2--------------------------|
            
Submit corrections


        Cinderella lessons Hard to play? Try these video lessons and learn fast Cinderella lessons
        
↑ Back to top | Tablatures and chords for acoustic guitar and electric guitar, ukulele, drums are parodies/interpretations of the original songs. You may use it for private study, scholarship, research or language learning purposes only