Home » S » Steve Miller Band »

Steve Miller Band - True Fine Love Ukulele

Artists:  A B C D E F G H I J K L M N O P Q R S T U V W X Y Z # 

True Fine Love Ukulele

(ver. 1) Click to play this song!
Steve Miller Band
-------------------------------------------------------------------------------
                             SONG NAME - Band Name
-------------------------------------------------------------------------------

Tuning: standard

The song has been transcribed down a half step for simplicity and (especially) vocals.
Good luck singing the thing!

Intro

        A                F#m          (x3)
 e|------------------------------------------------------------------------------|
B|-------------------------------------------------------------------------------|
G|------2----------------------------2-----------4-------------------------------|
D|------2-----------4----------------2-----------4-------------------------------|
A|---0--------------4------------0-0-------2-2-2---------------------------------|
E|-------------2--2--------------------------------------------------------------|


Verse 1 (continue riff pattern throughout verses)
A                F#m
Well I ain't complainin' but I'd
Sure like to find me a
True...
Fine Love
Someone or 'nother
That's a sweet as your mother a
True...
Fine Love

Chorus
A
Cause the timing's right for walking
E
In the moonlight
F#m
I have cerainly found somewhere
D
To settle down
A
So common get your rocks off
E
I'm gonna knock your socks off -
F#m
You see
D
Oh yea
A
Common pretty baby
E
We're gonna raise a family

Verse 2
A                F#m
They'll be no hesitatin'
Cause I'm sure kinda waitin for a
True...
Fine Love
Someone or 'nother
Like a sister or brother a
True...
Fine Love


Solo (Solo is done over verse chords followed by chorus chords)

Verse 3
A                F#m
Well I ain't complainin' but I'd
Sure like to find me a
True...
Fine Love
Someone or 'nother
That's a sweet as your mother a
True...
Fine Love

Chorus
A
Cause the timing's right for walking
E
In the moonlight
F#m
I have cerainly found somewhere
D
To settle down
A
We''l have a boy for you
E
We'll have a girl for me
F#m
Common baby raise a
D
Family
A
So common get your rocks off
E
I'm gonna knock your socks off
F#m
You see
D
Oh yea
A
Common pretty baby
E
We're gonna raise a family

(fade out)

| /  slide up
| \  slide down
| H  hammer-on
| p  pull-off
| ~  vibrato
| +  harmonic
| x  Mute note
===============================================================================
            
Submit corrections

↑ Back to top | Tablatures and chords for acoustic guitar and electric guitar, ukulele, drums are parodies/interpretations of the original songs. You may use it for private study, scholarship, research or language learning purposes only