Home » S » Steve Miller Band »

Steve Miller Band - Shu Ba Da Du Ma Ma Ma Bass

Artists:  A B C D E F G H I J K L M N O P Q R S T U V W X Y Z # 

Shu Ba Da Du Ma Ma Ma Bass

(ver. 1) Click to play this song!
Steve Miller Band
-------------------------------------------------------------------------------
			     Shu Ba Da Du Ma Ma Ma - Steve Miller Band
-------------------------------------------------------------------------------


Tuning:EADG   solo (2:13 - 2:51)

G|--------------------|
D|-----7---5----------|4x
A|--789-987-0567---(7)|
E|--------------------|


G|----7---13v-----7---|
D|--89-8-------789----|4x
A|--------------------|
E|--------------------|

G|--15\14-12--12-----16^---|
D|----------14--12/15------|1x
A|-------------------------|
E|-------------------------|

G|--15\14-12---------------|
D|----------14-12----------|1x
A|----------------14-12----|
E|-------------------------|

G|---------------------12------16^---|
D|-----------------/14----12/15------|1x
A|--0-12-12-10-10--------------------|
E|-----------------------------------|

G|--16^:-12---------------------------|
D|---------14-12----------------------|1x
A|---------------12-------------------|
E|------------------------------------|

G|---------|--/19--------------x19------18--|
D|---------|------17-19------------x-17-----|1x
A|-12-10^--|------------17------------------|
E|---------|---------------0-0--------------|

G|--x/19^:--------------x19-----18-----------|
D|--------17-19------------x-17--------------|3x
A|-------------17----------------------------|
E|----------------0-0------------------------|


| /  slide up      ^ bend up and return to normal pitch  
| \  slide down    ^: bend up and don't hear release
| h  hammer-on    (#) played lightly and fast right before the note after it
| p  pull-off
| v  vibrato
| +  harmonic
| x  Mute note
===============================================================================
            
Submit corrections

↑ Back to top | Tablatures and chords for acoustic guitar and electric guitar, ukulele, drums are parodies/interpretations of the original songs. You may use it for private study, scholarship, research or language learning purposes only