Home » S » Steve Fee »

Steve Fee - Grace Will Be My Song Tabs

Artists:  A B C D E F G H I J K L M N O P Q R S T U V W X Y Z # 

Grace Will Be My Song Tabs

(ver. 1) Click to play this song!
Steve Fee
Drop D tuning, very easy song

|--------------|--------------|--------------|--------------           |---|
|--------------|--------------|--------------|--------------           |---|
|-5-5-5-5-5-5-5|5-5-5-5-5-5-5-|5-5-5-5-5-5-5-|5-5-----------           |---|
|-5-5-5-5-5-5-5|5-5-5-5-5-5-5-|5-5-5-5-5-5-5-|5-5-----------strum these|-3-|
|-3-3-3-3-3-3-3|3-3-3-3-3-3-3-|3-3-3-3-3-3-3-|3-3-----------to the song|-3-|
|--------------|--------------|--------------|--------------           |-3-|

|---||---||---||--------------|--------------|--------------|--------------|
|---||---||---||--------------|--------------|--------------|--------------|
|-5-||---||-5-||-9-9-9-9-9-9-9|-9-10-10-10-10|10-10-10-10-7-|7-7-7-7-7-7-7-|
|-5-||-3-||-5-||-x-x-x-x-x-x-x|-x--x--x--x--x|-x--x--x--x-x-|x-x-x-x-x-x-x-|
|-3-||-3-||-3-||-7-7-7-7-7-7-7|-7--8--8--8--8|-8--8--8--8-5-|5-5-5-5-5-5-5-|
|---||-3-||---||--------------|--------------|--------------|--------------|

|---||---||---||---||---||---|
|---||---||---||---||---||---|
|---||-5-||---||-5-||---||-5-|
|-3-||-5-||-3-||-5-||-3-||-5-|
|-3-||-3-||-3-||-3-||-3-||-3-|
|-3-||---||-3-||---||-3-||---|

|--------------|--------------|--------------|--------------|
|--------------|--------------|--------------|--------------|
|-9-9-9-9-9-9-9|-9-10-10-10-10|10-10-10-10-7-|7-7-7-7-7-7-7-|
|-x-x-x-x-x-x-x|-x--x--x--x--x|-x--x--x--x-x-|x-x-x-x-x-x-x-|
|-7-7-7-7-7-7-7|-7--8--8--8--8|-8--8--8--8-5-|5-5-5-5-5-5-5-|
|--------------|--------------|--------------|--------------|

|---||---||---||---||----||-0--3--0--3--0-||-1-1-------3-----|!
|---||---||---||---||----||-1--3--1--3--1-||-1-1-------5-----|!
|---||-5-||-7-||-9-||-12-||-2--5--2--5--2-||-3-2-------5-----|!
|-3-||-5-||-7-||-9-||-12-||-3--5--3--5--2-||-3-3-------5-----|!
|-3-||-3-||-5-||-7-||-10-||----3-----3--0-||-1-3-------3-----|!
|-3-||---||---||---||----||---------------||---1-------------|!Yay!cool stuff..
            
Submit corrections

↑ Back to top | Tablatures and chords for acoustic guitar and electric guitar, ukulele, drums are parodies/interpretations of the original songs. You may use it for private study, scholarship, research or language learning purposes only