Home » S » Steve Fee »

Steve Fee - We Shine Bass

Artists:  A B C D E F G H I J K L M N O P Q R S T U V W X Y Z # 

We Shine Bass

(ver. 1) Click to play this song!
Steve Fee
Intro:
G:--------------------------------------------------|
D:--------------------------------------------------|
A:----------------------8-10—8----------------------|
E:-10-10-10-8-10--10-10--------10-8-6-6-6-3-6--6-10-|

G:---------------------------------------|
D:---------------------------------------|
A:--8-10—8-----------------------8-10--8-|
E:--------10-8-8-8-8-6-8-8-10------------|

G:----------------|
D:----------------|
A:-10-10-10-10-10-|
E:----------------|

Verse:
G:--------------------------------------------|
D:--------------------------------------------|
A:------------------------------------8-10-10-|
E:-8-10-8-10/----3-6-3-6/----6-8-6-8/---------|

Then go back to the intro tab
Prechorus:
G:----------------------------------------------------|
D:---10h12-12-----10h12-12-10h12-12-10-12-12-12-12-12-|
A:----------------------------------------------------|
E:10---------10-10------------------------------------|

Chorus:
G:---------------------------|
D:---------------------------|
A:-5----2----0---------------|
E:------------------3—0-0-0--|

Bridge (bass solo):
G:---------------------|
D:---------------------|
A:-3-5-5-3-5-5---------|
E:----------------3-5--|
            
Submit corrections

↑ Back to top | Tablatures and chords for acoustic guitar and electric guitar, ukulele, drums are parodies/interpretations of the original songs. You may use it for private study, scholarship, research or language learning purposes only