» » »

Steve Earle - My Old Friend The Blues Tabs

Artists:  A B C D E F G H I J K L M N O P Q R S T U V W X Y Z # 

My Old Friend The Blues Tabs

(ver. 1) Click to play this song!
Steve Earle
 Rating:
4/5 (4 votes)

 My Old Friend The Blues lessons Tabs too difficult? Try these video lessons and learn fast
 
                This is the best I can do. lol. It make take some time to understand my tabbing 
but I know for a fact that its right because it sounds great....trust me. If 
you want to learn this song right learn it this way. leave some comments on my 
first tab. thanks, yall take it easy.


  Slide-->       Slide-->                   G
e-(5)------(7)-7--------------5-----3------3--3------
b-------------------------------0----3------3-3------
g-(5)------(7)--(7)-------(5)-------------0---0------
d--------------------------------------0h2----0------
a----------------------------------2----------2------
e---------------------------------3-----------3------


    Slide-->       Slide-->                   G
e-(5)------(7)-7--------------5-----3------3--3------
b------------------------------------3------3-3------
g-(5)------(7)--(7)-------(5)---0---------0---0------
d----------------------------------2---0h2----0------
a---------------------------------3-----------2------
e---------------------------------------------3------


    Slide-->                   Slap mute      
e-(5)------(7)-7-7-------2-----x---------------------
b-----------------------3-3----x---------------------
g-(5)------(7)--7------2---2---x---------------------
d---------------------0-----0--x---------------------
a------------------------------x---------------------
e------------------012-------2-x---------------------


    Slide-->       Slide-->                   G
e-(5)------(7)-7--------------5-----3------3--3------
b-------------------------------0----3------3-3------
g-(5)------(7)--(7)-------(5)-------------0---0------
d--------------------------------------0h2----0------
a----------------------------------2----------2------
e---------------------------------3-----------3------
            
Submit corrections


        My Old Friend The Blues lessons Hard to play? Try these video lessons and learn fast My Old Friend The Blues lessons
        
↑ Back to top | Tablatures and chords for acoustic guitar and electric guitar, ukulele, drums are parodies/interpretations of the original songs. You may use it for private study, scholarship, research or language learning purposes only