» » »

Steve Aoki - Let It Be Me Tabs

Artists:  A B C D E F G H I J K L M N O P Q R S T U V W X Y Z # 

Let It Be Me Tabs

(ver. 1) Click to play this song!
Steve Aoki
 Rating:
4.4/5 (11 votes)

 Let It Be Me lessons Tabs too difficult? Try these video lessons and learn fast
 
                [Intro]

e|---------------|-----------------|---------------|-----------------|
B|---------------|-----------------|---------------|-----------------|
G|----0-----0----|----0-----0------|----0-----0----|----0-----0------|
D|------2-2---2--|------4-----4----|------0-----0--|------2-----2----|
A|--3------------|--5-----5-----5--|--2-----2------|--3-----3-----3--|
E|---------------|-----------------|---------------|-----------------|


[Verse 1]

e|---------------|-----------------|---------------|-----------------|
B|---------------|-----------------|---------------|-----------------|
G|----0-----0----|----0-----0------|----0-----0----|----0-----0------|
D|------2-2---2--|------4-----4----|------0-----0--|------2-----2----| 2x
A|--3------------|--5-----5-----5--|--2-----2------|--3-----3-----3--|
E|---------------|-----------------|---------------|-----------------|


[Pre-Chorus]

e|---------------|-----------------|---------------|-----------------|
B|---------------|-----------------|---------------|-----------------|
G|----0-----0----|----0-----0------|----0-----0----|----0-----0------|
D|------2-2---2--|------4-----4----|------0-----0--|------2-----2----| 2x
A|--3------------|--5-----5-----5--|--2-----2------|--3-----3-----3--|
E|---------------|-----------------|---------------|-----------------|


[Chorus]

e|--0--0--|--2--2--|--3--3--|--0--0--|
B|--1--1--|--3--3--|--3--3--|--1--1--|
G|--0--0--|--2--2--|--0--0--|--0--0--|
D|--2--2--|--0--0--|--0--0--|--2--2--| 2x
A|--3--3--|--------|--2--2--|--3--3--|
E|--------|--------|--3--3--|--------|


[Post-Chorus]

e|--0--0--|--2--2--|--3--3--|--0--0--|
B|--1--1--|--3--3--|--3--3--|--1--1--|
G|--0--0--|--2--2--|--0--0--|--0--0--|
D|--2--2--|--0--0--|--0--0--|--2--2--| 2x
A|--3--3--|--------|--2--2--|--3--3--|
E|--------|--------|--3--3--|--------|

Guitar nº2:

e|---------------|-----------------|---------------|-----------------|
B|---------------|-----------------|---------------|-----------------|
G|----0-----0----|----0-----0------|----0-----0----|----0-----0------|
D|------2-2---2--|------4-----4----|------0-----0--|------2-----2----| 2x
A|--3------------|--5-----5-----5--|--2-----2------|--3-----3-----3--|
E|---------------|-----------------|---------------|-----------------|


[Verse 2]

e|---------------|-----------------|---------------|-----------------|
B|---------------|-----------------|---------------|-----------------|
G|----0-----0----|----0-----0------|----0-----0----|----0-----0------|
D|------2-2---2--|------4-----4----|------0-----0--|------2-----2----| 2x
A|--3------------|--5-----5-----5--|--2-----2------|--3-----3-----3--|
E|---------------|-----------------|---------------|-----------------|


[Pre-Chorus]

e|---------------|-----------------|---------------|-----------------|
B|---------------|-----------------|---------------|-----------------|
G|----0-----0----|----0-----0------|----0-----0----|----0-----0------|
D|------2-2---2--|------4-----4----|------0-----0--|------2-----2----| 2x
A|--3------------|--5-----5-----5--|--2-----2------|--3-----3-----3--|
E|---------------|-----------------|---------------|-----------------|


[Chorus]

e|--0--0--|--2--2--|--3--3--|--0--0--|
B|--1--1--|--3--3--|--3--3--|--1--1--|
G|--0--0--|--2--2--|--0--0--|--0--0--|
D|--2--2--|--0--0--|--0--0--|--2--2--| 2x
A|--3--3--|--------|--2--2--|--3--3--|
E|--------|--------|--3--3--|--------|


[Post-Chorus]

e|--0--0--|--2--2--|--3--3--|--0--0--|
B|--1--1--|--3--3--|--3--3--|--1--1--|
G|--0--0--|--2--2--|--0--0--|--0--0--|
D|--2--2--|--0--0--|--0--0--|--2--2--| 2x
A|--3--3--|--------|--2--2--|--3--3--|
E|--------|--------|--3--3--|--------|

Guitar nº2:

e|---------------|-----------------|---------------|-----------------|
B|---------------|-----------------|---------------|-----------------|
G|----0-----0----|----0-----0------|----0-----0----|----0-----0------|
D|------2-2---2--|------4-----4----|------0-----0--|------2-----2----| 2x
A|--3------------|--5-----5-----5--|--2-----2------|--3-----3-----3--|
E|---------------|-----------------|---------------|-----------------|


[Bridge]

e|--0----|--2----|--3----|--0----|
B|--1----|--3----|--3----|--1----|
G|--0----|--2----|--0----|--0----|
D|--2----|--0----|--0----|--2----| 2x
A|--3----|-------|--2----|--3----|
E|-------|-------|--3----|-------|


[Chorus]

e|--0----|--2----|--3----|--0----|
B|--1----|--3----|--3----|--1----|
G|--0----|--2----|--0----|--0----|
D|--2----|--0----|--0----|--2----| 
A|--3----|-------|--2----|--3----|
E|-------|-------|--3----|-------|

e|--0--0--|--2--2--|--3--3--|--0--0--|
B|--1--1--|--3--3--|--3--3--|--1--1--|
G|--0--0--|--2--2--|--0--0--|--0--0--|
D|--2--2--|--0--0--|--0--0--|--2--2--| 
A|--3--3--|--------|--2--2--|--3--3--|
E|--------|--------|--3--3--|--------|


[Post-Chorus]

e|--0--0--|--2--2--|--3--3--|--0--0--|
B|--1--1--|--3--3--|--3--3--|--1--1--|
G|--0--0--|--2--2--|--0--0--|--0--0--|
D|--2--2--|--0--0--|--0--0--|--2--2--| 2x
A|--3--3--|--------|--2--2--|--3--3--|
E|--------|--------|--3--3--|--------|

Guitar nº2:

e|---------------|-----------------|---------------|-----------------|
B|---------------|-----------------|---------------|-----------------|
G|----0-----0----|----0-----0------|----0-----0----|----0-----0------|
D|------2-2---2--|------4-----4----|------0-----0--|------2-----2----| 2x
A|--3------------|--5-----5-----5--|--2-----2------|--3-----3-----3--|
E|---------------|-----------------|---------------|-----------------|


[Outro]

e|--0--0--|--2--2--|--3--3--|--0--0--|
B|--1--1--|--3--3--|--3--3--|--1--1--|
G|--0--0--|--2--2--|--0--0--|--0--0--|
D|--2--2--|--0--0--|--0--0--|--2--2--| 2x
A|--3--3--|--------|--2--2--|--3--3--|
E|--------|--------|--3--3--|--------|

e|---------------|-----------------|---------------|-----------------|
B|---------------|-----------------|---------------|-----------------|
G|----0-----0----|----0-----0------|----0-----0----|----0-----0------|
D|------2-2---2--|------4-----4----|------0-----0--|------2-----2----| 2x
A|--3------------|--5-----5-----5--|--2-----2------|--3-----3-----3--|
E|---------------|-----------------|---------------|-----------------|


[Ending]

e|--0----|--2----|--3----|--0----|
B|--1----|--3----|--3----|--1----|
G|--0----|--2----|--0----|--0----|
D|--2----|--0----|--0----|--2----| 
A|--3----|-------|--2----|--3----|
E|-------|-------|--3----|-------|            
Submit corrections


        Let It Be Me lessons Hard to play? Try these video lessons and learn fast Let It Be Me lessons
        
↑ Back to top | Tablatures and chords for acoustic guitar and electric guitar, ukulele, drums are parodies/interpretations of the original songs. You may use it for private study, scholarship, research or language learning purposes only