Home » S » Stephen Speaks »

Stephen Speaks - Song For A Dancer Tabs

Artists:  A B C D E F G H I J K L M N O P Q R S T U V W X Y Z # 

Song For A Dancer Tabs

(ver. 1) Click to play this song!
Stephen Speaks
Someone else tabbed this on 911 tab but I like my version of doing
this better. The other tab didn't show timing for the solo and needs
a capo. I don't even have a capo so I transated it the easiest way
and I'm going to try and show the timing for the solo.

Intro/Verse
---------------------------|
---------------------------|
-7--7-9------12--12-11--12-|
---------------------------| x14
---------------------------|
---7--8--------12---10--12-|

or this one, whichever you prefer.
----------------------------|
----------------------------|
-7----9------12------11--12-|
----------------------------| x14
----------------------------|
--7-7-8--------12-12-10--12-|

Chorus
-7---7---7---7---5---5---5---5------------------------------------|
---------------------------------8---8---8---8--------------------|
-------------------------------------------------9---9---9---9----|
---5---5---5---5---5---5---5---5---5---5---5---5---5---5---5---5--|
------------------------------------------------------------------|
------------------------------------------------------------------|

-7---7---7---7---5---5---5---5------------------------------------|
---------------------------------8---8---8---8--------------------|
-------------------------------------------------9---9--7~~~~~~~~-|
---5---5---5---5---5---5---5---5---5---5---5---5---5--------------|
------------------------------------------------------------------|
------------------------------------------------------------------|

Solo
Plays behind solo
---------------------------|
---------------------------|
-7--7-9------12--12-11--12-|
---------------------------|x4
---------------------------|
--7---8--------12---10--12-|

--------------------------|
--------------------------|
--------------------------|
-9--9-5-------------------|
--------------------------|
--------------------------|

--------------------------|
--------------------------|
--5-----------------------|
-9-9--7--5----5-----------|
------------9-------------|
--------------------------|

--------------------------|
--------------------------|
-5-9-9-5------------------|
--------------------------|
--------------------------|
--------------------------|

--------------------------|
--------------------------|
---5----------------------|
-9---9-555/7-5------------|
---------------9----------|
--------------------------|

Plays behind solo
-7---7---7---7---5---5---5---5------------------------------------|
---------------------------------8---8---8---8--------------------|
-------------------------------------------------9---9---9---9----|
---5---5---5---5---5---5---5---5---5---5---5---5---5---5---5---5--|
------------------------------------------------------------------|
------------------------------------------------------------------|

------------------------------------------------------------------|
------------------------------------------------------------------|
-----7--7-7-5----5-------------7--5-------------------------------|
-5-9-----------9-------------9-------9--7--5----------------------|
----------------------------------------------9--7----------------|
------------------------------------------------------------------|

Plays behind solo
-7---7---7---7---5---5---5---5------------------------------------|
---------------------------------8---8---8---8--------------------|
-------------------------------------------------9---9--7~~~~~~~~-|
---5---5---5---5---5---5---5---5---5---5---5---5---5--------------|
------------------------------------------------------------------|
------------------------------------------------------------------|


-------------------------------------------------------------------|
-------------------------------------------------------------------|
-7--5-----------5--------5-----------------------------------------|
-------9--7--9-----7--9----7/9--7/9/7--5--7--9--7--5---------------|
-----------------------------------------------------9--7~~~~~~~~~-|
-------------------------------------------------------------------|

Plays behind solo
---------------------------|
---------------------------|
-7--7-9------12--12-11--12-|
---------------------------|x4
---------------------------|
--7---8--------12---10--12-|

---------------------------|
-8--7-8~~~~~~~~~~~~~~~~~~~-|
---------------------------|
---------------------------|
---------------------------|
---------------------------|

----5-------5--------------|
-8----8--7-----8-----7---8-|
---------------------------|
---------------------------|
---------------------------|
---------------------------|

---------------------------|
-------------7/8~8---------|
----------7-9------7-9-7-9-|
---------------------------|
---------------------------|
---------------------------|

---------------------------|
---------------------------|
-7-5-7---5-7-------5-------|
-------9-----5-7-9---9-7-9-|
---------------------------|
---------------------------|

Plays behind solo
-7---7---7---7---5---5---5---5------------------------------------|
---------------------------------8---8---8---8--------------------|
-------------------------------------------------9---9---9---9----|
---5---5---5---5---5---5---5---5---5---5---5---5---5---5---5---5--|
------------------------------------------------------------------|
------------------------------------------------------------------|

-----------------------------------5---5-7-5-7-5------------------|
-----------------------8-7-5-8-7-8---8-----------8----------------|
-5-------5-7-5-7-9-7-9--------------------------------------------|
---9-7-9----------------------------------------------------------|
------------------------------------------------------------------|
------------------------------------------------------------------|

-------------------------------------------------------------------|
-------------------------------------------------------------------|
-7--5-----------5--------5-----------------------------------------|
-------9--7--9-----7--9----7/9--7/9/7--5--7--9--7--5---------------|
-----------------------------------------------------9--7~~~~~~~~~-|
-------------------------------------------------------------------|

-----------
-----------
----------5---
-5--7--9-----9-
--------------
--------------
            
Submit corrections

↑ Back to top | Tablatures and chords for acoustic guitar and electric guitar, ukulele, drums are parodies/interpretations of the original songs. You may use it for private study, scholarship, research or language learning purposes only