» » »

Stephen Lynch - What If The Guy From Smashing Pumpkins Tabs

Artists:  A B C D E F G H I J K L M N O P Q R S T U V W X Y Z # 

What If The Guy From Smashing Pumpkins Tabs

(ver. 1) Click to play this song!
Stephen Lynch
 Rating:
4/5 (4 votes)

 What If The Guy From Smashing Pumpkins lessons Tabs too difficult? Try these video lessons and learn fast
 
                FIGURE I
e--------0-------0-------0-------0--
B------1-------1-------1-------1----
G----2-------2-------2-------2------
D--3-------3-------3-------3--------
A-----------------------------------
E-----------------------------------

FIGURE II
e-------0-------0-------0-------0---
B-----1-------1-------1-------1-----
G----2------2-------2-------2-------
D--2------2-------2-------2---------
A-----------------------------------
E-----------------------------------

Basically just keep repeating these two figures until the end of the song.  If you want to hear the song you can go to stephenlynch.com and go to albums, its is off of the new album "Superhero".  
p.s.-the song is actually named what if the guy from smashing pumpkinds lost his car keys but i couldnt fit it all in the box.sry
            
Submit corrections


        What If The Guy From Smashing Pumpkins lessons Hard to play? Try these video lessons and learn fast What If The Guy From Smashing Pumpkins lessons
        
↑ Back to top | Tablatures and chords for acoustic guitar and electric guitar, ukulele, drums are parodies/interpretations of the original songs. You may use it for private study, scholarship, research or language learning purposes only