» » »

Stephen Lynch - Tiny Little Mustache Tabs

Artists:  A B C D E F G H I J K L M N O P Q R S T U V W X Y Z # 

Tiny Little Mustache Tabs

(ver. 1) Click to play this song!
Stephen Lynch
 Rating:
4/5 (4 votes)

 Tiny Little Mustache lessons Tabs too difficult? Try these video lessons and learn fast
 
                -------------------------------------------------------------------------------
                             Tiny Little Mustache- Band Name
-------------------------------------------------------------------------------
                            k, so heres wat im seeing, the other tabs for this song r
right, but not really. if u notice his guitar when he is playing this song, he has this
this he puts around his guitar on the third fret. i dont know wat its called but its 
barring the third fret automatically for him. so if he just didint touch the guitar and
hit the strings, instead of playing it open, it plays the third fret. so having that in 
u cant go below the third fret, which the other tabs do. this is how it is really played.


Tuning:Standard

      Intro and most of the song is this

e|---------------------------------------------------------------------------|
B|---------------------------------------------------------------------------|
G|------3----------3-----------3---------3---------3---------3---------------|
D|----3---3------3---3-------3---3-----3---3-----3---3-----3---3-------------|
A|---------------------------------------------------------------------------|
E|--6---------6-----------5----------5---------3---------3-------------------|

      thats pretty much the whole song repeated, but when he starts singing the "i think
a nazi baby" he plays the same thing except its like this, im not quite sure about the
E string, it seems like hes playing this tho


e|---------------------------------------------------------------------------|
B|-----3--------3--------3---------3--------3--------3-----------------------|
G|---3---3----3---3----3---3-----3---3----3---3----3---3---------------------|
D|---------------------------------------------------------------------------|
A|---------------------------------------------------------------------------|
E|-6--------6--------4--------4---------3--------3---------------------------|


  like i sed im not sure about the low e string, just mess around with them if u think
are wrong and leave a correction, but just keep in mind u cant go below the third fret
them. i dont know the chord parts, look at the other tabs for that part, i cant figure 
out. i hope this helped


 look at the other tabs for the chord parts in the song, becuase i cant get those right,
hope this helps some people
            
Submit corrections


        Tiny Little Mustache lessons Hard to play? Try these video lessons and learn fast Tiny Little Mustache lessons
        
↑ Back to top | Tablatures and chords for acoustic guitar and electric guitar, ukulele, drums are parodies/interpretations of the original songs. You may use it for private study, scholarship, research or language learning purposes only