» » »

Stephen Foster - Old Uncle Ned Tabs

Artists:  A B C D E F G H I J K L M N O P Q R S T U V W X Y Z # 

Old Uncle Ned Tabs

(ver. 1) Click to play this song!
Stephen Foster
 Rating:
4.3/5 (9 votes)

 Old Uncle Ned lessons Tabs too difficult? Try these video lessons and learn fast
 
                [Verse 1]

e|---------------------------------------------------|
B|-----0-0-0-1-1-1-3-3-3-3-----0-0-0-0---------0-0-1-|
G|---0---------------------0-2---------2-0-2-0-------|
D|---------------------------------------------------|
A|---------------------------------------------------|
E|---------------------------------------------------|

e|---------------------------------------------------|
B|-1-1-3-3-3-----0---------0-------------------------|
G|-----------0-2---2-0-2-2---0-----------------------|
D|---------------------------------------------------|
A|---------------------------------------------------|
E|---------------------------------------------------|

[Chorus]

e|---------------------------------------------------|
B|---------------------------0-0-0-0-0-------0-0-1-1-|
G|-------------------------2-----------2-0-2---------|
D|---0-0-0-0-0-0-0-0-0-------------------------------|
A|---------------------3-2---------------------------|
E|---------------------------------------------------|

e|-------0-------------------------------------0-----|
B|-1-3-4-----0---------0---0-----0-1---0-1-3-4-----0-|
G|---------2---2-0-2-2---0---0-2-----2-----------2---|
D|---------------------------------------------------|
A|---------------------------------------------------|
E|---------------------------------------------------|

e|---------------------------------------------------|
B|---------0-----------------------------------------|
G|-2-0-2-2---0---------------------------------------|
D|---------------------------------------------------|
A|---------------------------------------------------|
E|---------------------------------------------------|

[Verse 2]

e|---------------------------------------------------|
B|-----0-0-0-1-1-1-3-3-3-----0-0-0---------0-0-1-1-3-|
G|---0-------------------0-2-------2-0-2-0-----------|
D|---------------------------------------------------|
A|---------------------------------------------------|
E|---------------------------------------------------|

e|---------------------------------------------------|
B|-3-3-------0-0-------------------------------------|
G|-----0-0-2-----2-0-2-2-0---------------------------|
D|---------------------------------------------------|
A|---------------------------------------------------|
E|---------------------------------------------------|

[Chorus]

e|---------------------------------------------------|
B|---------------------------0-0-0-0-0-------0-0-1-1-|
G|-------------------------2-----------2-0-2---------|
D|---0-0-0-0-0-0-0-0-0-------------------------------|
A|---------------------3-2---------------------------|
E|---------------------------------------------------|

e|-------0-------------------------------------0-----|
B|-1-3-4-----0---------0---0-----0-1---0-1-3-4-----0-|
G|---------2---2-0-2-2---0---0-2-----2-----------2---|
D|---------------------------------------------------|
A|---------------------------------------------------|
E|---------------------------------------------------|

e|---------------------------------------------------|
B|---------0-----------------------------------------|
G|-2-0-2-2---0---------------------------------------|
D|---------------------------------------------------|
A|---------------------------------------------------|
E|---------------------------------------------------|

[Verse 3]

e|---------------------------------------------------|
B|-------0-0-0-1-1-1-3-3-3-------0-0-0-0-----------0-|
G|---0-0-------------------0-0-2---------2-0-2-0-0---|
D|---------------------------------------------------|
A|---------------------------------------------------|
E|---------------------------------------------------|

e|---------------------------------------------------|
B|-0-1-1-1-3-3-3-----0-0-----------------------------|
G|---------------0-2-----2-0-2-2-0-------------------|
D|---------------------------------------------------|
A|---------------------------------------------------|
E|---------------------------------------------------|

[Chorus]

e|---------------------------------------------------|
B|---------------------------0-0-0-0-0-------0-0-1-1-|
G|-------------------------2-----------2-0-2---------|
D|---0-0-0-0-0-0-0-0-0-------------------------------|
A|---------------------3-2---------------------------|
E|---------------------------------------------------|

e|-------0-------------------------------------0-----|
B|-1-3-4-----0---------0---0-----0-1---0-1-3-4-----0-|
G|---------2---2-0-2-2---0---0-2-----2-----------2---|
D|---------------------------------------------------|
A|---------------------------------------------------|
E|---------------------------------------------------|

e|---------------------------------------------------|
B|---------0-----------------------------------------|
G|-2-0-2-2---0---------------------------------------|
D|---------------------------------------------------|
A|---------------------------------------------------|
E|---------------------------------------------------|
            
Submit corrections


        Old Uncle Ned lessons Hard to play? Try these video lessons and learn fast Old Uncle Ned lessons
        
↑ Back to top | Tablatures and chords for acoustic guitar and electric guitar, ukulele, drums are parodies/interpretations of the original songs. You may use it for private study, scholarship, research or language learning purposes only