Home » S » Stephen Foster »

Stephen Foster - Beautiful Dreamer Tabs

Artists:  A B C D E F G H I J K L M N O P Q R S T U V W X Y Z # 

Beautiful Dreamer Tabs

(ver. 1) Click to play this song!
Stephen Foster
 Rating:
4.3/5 (6 votes)
                Time signature - 3/4
Tuning - E A D G B E


|---3--2--3--|-----------|-----------|-----------|--0--------|-----------|-----2--0--|
|------------|--3--------|--0--------|-----------|-----------|--1-----1--|--3-----1--|
|------------|--------0--|-----------|--2--1--2--|--------0--|-----0-----|-----------|
|------------|-----0-----|-----------|-----------|-----2-----|-----------|--0--------|
|------------|--2--------|-----------|--3--------|-----------|-----------|-----------|
|---3--------|-----------|-----------|-----------|-----------|-----------|-----------|



|--0--------|-----------|-----------|-----------|-----------|--3--2--3--|-----------|
|--1--3--1--|--1--0-----|--0--------|-----------|-----------|-----------|--3--------|
|-----------|--------2--|-----------|--0--------|-----------|-----------|--------0--|
|--0--------|-----------|--------0--|-----0-----|--------0--|-----------|-----0-----|
|-----------|-----------|-----2-----|--------2--|-----2-----|-----------|--2--------|
|-----------|-----------|--3--------|-----------|--3--------|--3--------|-----------|



|-----------|-----------|--0--------|-----------|-----2--0--|--0--------|-----------|
|--0--------|-----------|-----------|--1-----1--|--3-----1--|--1--3--1--|--1--0-----|
|-----------|--2--1--2--|--------0--|-----0-----|-----------|-----------|--------2--|
|-----------|-----------|-----2-----|-----------|--0--------|--0--------|-----------|
|-----------|--3--------|-----------|-----------|-----------|-----------|-----------|
|-----------|-----------|-----------|-----------|-----------|-----------|-----------|



|-----------|-----------|-----------|-----------|-----------|--0--------|-----------|
|-----------|-----------|--------0--|-----------|--------1--|--------1--|-----------|
|--0--------|--------0--|-----0-----|-----------|-----2-----|-----2-----|-----------|
|--------0--|-----0-----|--0--------|--0--------|-----------|--2--------|--2--0-----|
|-----2-----|--2--------|-----------|-----3--0--|-----------|-----------|--------2--|
|--3--------|-----------|-----------|-----------|--2--------|-----------|--3--------|



|-----------|-----------|--3--2--3--|--0--------|---5--3----|--2--3--0--|-----------|
|-----------|--0-----0--|--2--------|-----------|-----------|-----------|--3--------|
|--------0--|-----0-----|--0--------|-----------|-----------|-----------|-----0-----|
|-----0-----|-----------|-----------|-----------|-----------|--0--------|--4-----2--|
|-----------|-----------|--0--------|-----------|-----------|-----------|-----------|
|--3--------|-----------|-----------|-----------|-----------|-----------|-----------|



|-----------|--3--2--3--|-----------|-----------|-----------|--0--------|-----------|
|--------1--|-----------|--3--------|--0--------|-----------|-----------|--1-----1--|
|-----2-----|-----------|--------0--|-----------|--2--1--2--|--------0--|-----0-----|
|--0--------|-----------|-----0-----|-----------|-----------|-----2-----|-----------|
|-----------|-----------|--2--------|-----------|--3--------|-----------|-----------|
|-----------|--3--------|-----------|-----------|-----------|-----------|-----------|



|-----2--0--|--0--------|-----------|-----------|-----------|-----------|
|--3-----1--|--1--3--1--|--1--0-----|--0--------|-----------|-----------|
|-----------|-----------|--------2--|--------0--|--------2--|--------0--|
|--0--------|--0--------|-----------|-----0-----|-----1-----|-----2-----|
|-----------|-----------|-----------|-----------|-----------|-----------|
|-----------|-----------|-----------|--3--------|--2--------|--0--------|



|--0--2--3--|--3--------|-----------|-----------|-----------|
|--1--------|--0--------|--3--0-----|--1--0-----|-----------|
|--0--------|--0--------|-----------|--------2--|--0--------|
|-----------|--0--------|-----------|--2--0-----|--0--------|
|--3--------|-----------|-----------|--------3--|--2--------|
|-----------|-----------|-----------|-----------|--3--------|
            
Submit corrections

↑ Back to top | Tablatures and chords for acoustic guitar and electric guitar, ukulele, drums are parodies/interpretations of the original songs. You may use it for private study, scholarship, research or language learning purposes only