Home » S » Stephen Foster »

Stephen Foster - My Old Kentucky Home Tabs

Artists:  A B C D E F G H I J K L M N O P Q R S T U V W X Y Z # 

My Old Kentucky Home Tabs

(ver. 1) Click to play this song!
Stephen Foster
e|-0--0----0-------------0--1--0--1--5----3-------1----0---------------------------------------------------|
B|----1---------1----3---------------------------------1--3-------1--1--0-------1--3-------------------3---|
G|----0---------3----------------------------------------------------2----------2--0----------------0------|
D|--------------2-----------3-----0----------------------------------0-------------------0----------3------|
A|----3---------3-------------------------3----2-------3-----0------------------------2-----2--------------|
E|-------------------------------------------------------------------------2-------3-----------3-----------|
 
e|----0----0-------------0--1--0--1--5----3------------0----0----------0-----------------------0-----------|
B|----1---------1----3-------------------------1---3---1---------3--1------3----1--------------------------|
G|----0---------2------------------------------2-------2---------0-----0--------0--------------------------|
D|--------------------------3-----0------------------------------------3--------2--------------------------|
A|----3----2----0-------------------------3-------------------------------------3---------3----------------|
E|---------------------------------------------2-------1---------3-------------------3---------------------|
 
e|----0----0-------------0--1--0--1--5--3---------1----0--------------------------------------------1--0---|
B|----1----0----1----3---------------------------------1--3-------1--1--0-------1--3----------------0------|
G|----0----1----0-----------2--0--2--5--4---------2------------------2----------2--0----------------0------|
D|--------------2----------------------------0-------------------------------------------0-----------------|
A|----3---------0--------------------------------------3-----0------------------------2-----2--------------|
E|---------0---------------------------------------------------------1-----2-------3-----------3-----------|
 
e|----0----0-------------0--1--0--1--5----3------------0----0----------0-----------------------------------|
B|----1---------1----3-------------------------1---3---1---------3--1------3----1--------------------------|
G|----0---------2------------------------------2-------2---------0-----0----------------0------------------|
D|--------------------------3-----0------------------------------------3-------------2-----2---------------|
A|----3----2----0-------------------------3-------------------------------------3-------------3------------|
E|---------------------------------------------2-------1---------3---------------------------------3-------|
 
e|----3--------0--1--------5--3--0-------------------------------------------------------------------------|
B|----------------------3--------1-----------------3--1--------3--1--------------------1--------1--3-------|
G|----------0--------2-----------------0--------1-----------2-----------0--2--0-----0-----0----------------|
D|-------2--------0-----------------2--------0-----------2-----------0-----------2-----------2-------------|
A|----3-----------------------3-----------------------0-----------------------3----------------------------|
E|----------------------------------------0-----------------------1----------------------------------------|
 
e|----0----0-------------0--1--0--1--5----3------------0------1--0-----------------------------------------|
B|----1---------1----3-------------------------1--3----1---1----------3----3---0----1---------1------------|
G|----0---------2---------------------------------------------2-------0----0--------2----2----0------------|
D|--------------------------3-----0---------------------------0------------3-------------3-----------------|
A|----3----2----0-------------------------3------------0-------------------2--------3----------------------|
E|--------------------------------------------------------------------3------------------------------------|
            
Submit corrections

↑ Back to top | Tablatures and chords for acoustic guitar and electric guitar, ukulele, drums are parodies/interpretations of the original songs. You may use it for private study, scholarship, research or language learning purposes only