Home » S » Stephen Foster »

Stephen Foster - Hard Times Come Again No More Tabs

Artists:  A B C D E F G H I J K L M N O P Q R S T U V W X Y Z # 

Hard Times Come Again No More Tabs

(ver. 1) Click to play this song!
Stephen Foster
[Intro]

e|-----------------------------------1-------1-3-3-1---|
B|-------------------------------------4-3-4-----3---4-|
G|-------0-0-0-3-0---------0-0-1-3-3-------------1---0-|
D|---1-3-----------3-1-1-3-----------------------------|
A|-----------------------------------------------------|
E|-----------------------------------------------------|

[Verse 1]

e|---------------------------------------------------|
B|-----------------------------1---------------------|
G|-------0-0-0-0-3-0---------0---3-3-0-0-------------|
D|---1-3-------------3-1-1-3-------------1-3-3-1-1-3-|
A|---------------------------------------------------|
E|---------------------------------------------------|

e|---------------------------------------------------|
B|-----------------------1---------------------------|
G|-0-0-0-0-3-0---------0---3-0-0---------------------|
D|-------------3-1-1-3-----------1-3-3-1-------------|
A|---------------------------------------------------|
E|---------------------------------------------------|

[Chorus]

e|---------------------------------------------------|
B|-----------------1---4---1-------------------------|
G|---0-1-3-3-3-2-3---3---3---3-0-0-----------0-0-0-0-|
D|---------------------------------3-1-3-1-3---------|
A|---------------------------------------------------|
E|---------------------------------------------------|

e|---------------------------------------------------|
B|---------------1-----------------------------------|
G|-3-0---------0---3-0-0-----------------------------|
D|-----3-1-1-3-----------1-3-3-1---------------------|
A|---------------------------------------------------|
E|---------------------------------------------------|

[Refrain]

e|---------------------------------------------------|
B|---4---1-----------1-3-4---------------------------|
G|---0-3-0-3-1-0-----------3-0-0---------------------|
D|-----5---5-----3-1-------------1-3---1-------------|
A|---------------------------------5-----------------|
E|-----------------------------------4-3-------------|

[Verse 2]

e|---------------------------------------------------|
B|-----------------------------1---------------------|
G|-------0-0-0-0-3-0---------0---3-3-0-0-------------|
D|---1-3-------------3-1-1-3-------------1-3-3-1-1-3-|
A|---------------------------------------------------|
E|---------------------------------------------------|

e|---------------------------------------------------|
B|-----------------------1---------------------------|
G|-0-0-0-0-3-0---------0---3-0-0---------------------|
D|-------------3-1-1-3-----------1-3-3-1-------------|
A|---------------------------------------------------|
E|---------------------------------------------------|

[Chorus]

e|---------------------------------------------------|
B|-----------------1---4---1-------------------------|
G|---0-1-3-3-3-2-3---3---3---3-0-0-----------0-0-0-0-|
D|---------------------------------3-1-3-1-3---------|
A|---------------------------------------------------|
E|---------------------------------------------------|

e|---------------------------------------------------|
B|---------------1-----------------------------------|
G|-3-0---------0---3-0-0-----------------------------|
D|-----3-1-1-3-----------1-3-3-1---------------------|
A|---------------------------------------------------|
E|---------------------------------------------------|

[Refrain]

e|---------------------------------------------------|
B|---4---1-----------1-3-4---------------------------|
G|---0-3-0-3-1-0-----------3-0-0---------------------|
D|-----5---5-----3-1-------------1-3---1-------------|
A|---------------------------------5-0---------------|
E|-------------------------------------3-------------|

[Verse 3]

e|---------------------------------------------------|
B|-----------------------------1---------------------|
G|-------0-0-0-0-3-0---------0---3-3-0-0-------------|
D|---1-3-------------3-1-1-3-------------1-3-3-1-1-3-|
A|---------------------------------------------------|
E|---------------------------------------------------|

e|---------------------------------------------------|
B|-----------------------1---------------------------|
G|-0-0-0-0-3-0---------0---3-0-0---------------------|
D|-------------3-1-1-3-----------1-3-3-1-------------|
A|---------------------------------------------------|
E|---------------------------------------------------|

** Voice chorus **

[Refrain]

e|---------------------------------------------------|
B|---4---1-----------1-3-4---------------------------|
G|---0-3-0-3-1-0-----------3-0-0---------------------|
D|-----5---5-----3-1-------------1-3---1-------------|
A|---------------------------------5-0---------------|
E|-------------------------------------3-------------|

[Verse 4]

e|---------------------------------------------------|
B|-----------------------------1---------------------|
G|-------0-0-0-0-3-0---------0---3-3-0-0-------------|
D|---1-3-------------3-1-1-3-------------1-3-3-1-1-3-|
A|---------------------------------------------------|
E|---------------------------------------------------|

e|---------------------------------------------------|
B|-----------------------1---------------------------|
G|-0-0-0-0-3-0---------0---3-0-0---------------------|
D|-------------3-1-1-3-----------1-3-3-1-------------|
A|---------------------------------------------------|
E|---------------------------------------------------|            
Submit corrections

↑ Back to top | Tablatures and chords for acoustic guitar and electric guitar, ukulele, drums are parodies/interpretations of the original songs. You may use it for private study, scholarship, research or language learning purposes only