» » »

Östen Med Resten - Vampires Tabs

Artists:  A B C D E F G H I J K L M N O P Q R S T U V W X Y Z # 

Vampires Tabs

(ver. 1) Click to play this song!
Östen Med Resten
 Rating:
4.3/5 (21 vote)

 Vampires  lessons Tabs too difficult? Try these video lessons and learn fast
 
                [Verses]

(Guitar 1 - strum these accordingly)

       Cadd9                  Am9
e|------3----------------------0---------------------------------------------|
B|------3----------------------0---------------------------------------------|
G|------5----------------------5---------------------------------------------|
D|------5----------------------5---------------------------------------------|
A|----2/3----------------------0---------------------------------------------|
E|---------------------------3h5---------------------------------------------|

(Guitar 2)

e|---------3--3----------0---0-----------------------------------------------|
B|-------5------5------3-------(3)-------------------------------------------|
G|-----5----5--------5-----5-------------------------------------------------|
D|---------------------------------------------------------------------------|
A|---------------------------------------------------------------------------|
E|---------------------------------------------------------------------------|

(Bass)

G|---------------------------------------------------------------------------|
D|---------------------------------------------------------------------------|
A|---------------------------------------------------------------------------|
E|----5--7--8~--3~--5~-------------------------------------------------------|


[Chorus]

(Guitar 1)

e|---------------------------------------------------------------------------|
B|---------------------------------------------------------------------------|
G|---------------------------------------------------------------------------|
D|----h17-----h17-----h17-----h17-----h19-----h19-----h19-----h19------------|
A|-h15-----h15-----h15-----h15-----h17-----h17-----h17-----h17-------17--15--|
E|---------------------------------------------------------------------------|

(Guitar 2)

e|---------------------------------------------------------------------------|
B|----h15-----h15-----h15-----h15-----h17-----h17-----h17-----h17------------|
G|-h17-----h17-----h17-----h17-----h17-----h17-----h17-----h17---------------|
D|---------------------------------------------------------------------------|
A|---------------------------------------------------------------------------|
E|---------------------------------------------------------------------------|

(Bass)
                          
G|---------------------------------------------------------------------------|
D|--------------------------------------5------------------------------------|
A|---0---0---0---0----0----0----0----0---------------------------------------|
E|-8---8---8---8---10---10---10---10-----------------------------------------|

After doing this go back to Verses and then do this over again.


[Bridge]

(Guitar 1)

e|---------------------------------------------------------------------------|
B|---------------------------------------------------------------------------|
G|---5-5-/-12---3-5-/-12---5-5--/-12---7-\-5---------------------------------|
D|---x-x-/--x---x-x-/--x---x-x--/--x---x-\-x-------Repeat as necessary-------|
A|---3-3-/-10---5-5-/-10---3-3--/-10---5-\-3---------------------------------|
E|---------------------------------------------------------------------------|

(Guitar 2)

e|---------------------------------------------------------------------------|
B|----15--15--15--15--10--10--10--10--17--17--17--17-------------------------|
G|--17--17--17--17--12--12--12--12--19--19--19--19---------------------------|
D|---------------------------------------------------------------------------|
A|---------------------------------------------------------------------------|
E|---------------------------------------------------------------------------|

(Play this as Guitar 1 stops)
e|---------------------------------------------------------------------------|
B|---------15--15----------10--10----------17--17----------------------------|
G|--17--17---------12--12----------19--19----------17------------------------|
D|---------------------------------------------------------------------------|
A|---------------------------------------------------------------------------|
E|---------------------------------------------------------------------------|

After this Guitar 1 will go back to its progression of Cadd9 and Am9 again. 
Guitar 2 will play the lead from the Bridge till the end though instead of the original Chorus lead.

e|---------------------------------------------------------------------------|
B|----15--15--15--15--10--10--10--10--17--17--17--17-------------------------|
G|--17--17--17--17--12--12--12--12--19--19--19--19---------------------------|
D|---------------------------------------------------------------------------|
A|---------------------------------------------------------------------------|
E|---------------------------------------------------------------------------|

            
Submit corrections


        Vampires  lessons Hard to play? Try these video lessons and learn fast Vampires  lessons
        
↑ Back to top | Tablatures and chords for acoustic guitar and electric guitar, ukulele, drums are parodies/interpretations of the original songs. You may use it for private study, scholarship, research or language learning purposes only